Song name
# A B C D E F G H I J K L M N O P Q R S T U V W X Y Z

Dum Dums - Seeker tab

Author/Artist: Dum dums
Title: The Seeker
Album:  -
Transcribed by: L33
Email: kidrocker

----------------------------------------------------------------------------|
----------------------------------------------------------------------------|
-77-xx-7-xx-7-------------------------77-xx-7-xx-7--------------------------|
-77-xx-7-xx-7-55-3-x-3-xx-3-xx-3--55--77-xx-7-xx-7-55-3-x-3-xx-3-xx-3-55----|
-55-xx-5-xx-5-55-3-x-3-xx-3-xx-3--55--55-xx-5-xx-5-55-3-x-3-xx-3-xx-3-55----|
--------------33-1-x-1-xx-1-xx-1--33---------------33-1-x-1-xx-1-xx-1-33----|
     INTRO

----------------------------------------------------------------------------|
----------------55----------------------------------------------------------|
--55-xx-5-xx-5--55-55-xx-5-xx-5---------------------------------------------|
--55-xx-5-xx-5--33-55-xx-5-xx-5---------------------------------------------|
--33-xx-3-xx-3-----33-xx-3-xx-3---------------------------------------------|
----------------------------------------------------------------------------|
   INTRO CONTINUED

----------------------------------------------------------------------------|
-----------55---------------55----------------------------------------------|
-----------55-55-xx-5-xx-5--55-55-xx-5-xx-5---------------------------------|
--3--------33-55-xx-5-xx-5--33-55-xx-5-xx-5---------------------------------|
--3-x22-------33-xx-3-xx-3-----33-xx-3-xx-3---------------------------------|
--1-------------------------------------------------------------------------|
  *   VERSE

----------------------------------------------------------------------------|
----------------------------------------------------------------------------|
----------------------------------------------------------------------------|
--5-3-----------------------------------------------------------------------|
--5-3-----------------------------------------------------------------------|
--3-1-----------------------------------------------------------------------|
  pre chorus

-------------------------|--------------------------------------------------|
-------------------------|--------------------------------------------------|
-------5-----------------|--------------------------------------------------|
-3-----5-x4--5-----------|------2--2-2-----2--2-2-----2--2-2----------------|
-3-x8--3-----5-x-4-------|--------------------------------------------------|
-1-----------3-----------|--1-1--------1-1--------1-1--------1--------------|
  chrous

----------------------------------------------------------------------------|
-----5-------5-------3-------5-------5-------5------------------------------|
---5---5---5---5---4---4---5---5---5---5---5---5----------------------------|
-3-------3-------2-------3-------3-------3-------3--------------------------|
----------------------------------------------------------------------------|
----------------------------------------------------------------------------|
   interlude

----------------------------------------------------------------------------|
----------------------------------------------------------------------------|
-------------------------------------12-12-12-12----------------------------|
-15-15-15-15-15-15-15-15-14-14-14-14----------------------------------------|
----------------------------------------------------------------------------|
----------------------------------------------------------------------------|


----------------------------------------------------------------------------|
----------------------------------------------------------------------------|
----------------------------------------------------------------------------|
-3333333322227777-----------------------------------------------------------|
-3333333322227777-----------------------------------------------------------|
-1111111100005555-----------------------------------------------------------|
 ****************   Repeat with mute releasing

----------------------------------------------------------------------------|
----------------------------------------------------------------------------|
-----2--2-2-----2--2-2-----2--2-2-------------------------------------------|
----------------------------------3-----------------------------------------|
-3-3--------3-3--------3-3--------3-----------------------------------------|
-1-1--------1-1--------1-1--------1-----------------------------------------|
  ending

maybe not 100% correct but more or less there
Tap to rate this tab
# A B C D E F G H I J K L M N O P Q R S T U V W X Y Z