Song name
# A B C D E F G H I J K L M N O P Q R S T U V W X Y Z

Duman - En Guzel Gunum Gecem tab

Kaan    = lead guitar
Batuhan = rythim guitar


E||--------------------------|-------------------------|----||
B||--------------------------|-------------------------|----||
G||--------------------------|-------------------------|----||
D||--6--6--6--6--6--6--6--6--|--7--7--4----4--4--4--4--|----||  x6 
A||--6--6--6--6--6--6--6--6--|--7--7--4----4--4--4--4--|----||
E||--4--4--4--4--4--4--4--4--|--5--5--2----2--2--2--2--|----||
     .  .  .  .  .  .  .  .     .  .  .    .  .  .  .

KAAN
E||----------------|---------------|---------------|--------------||
B||--4-2--0-4-2--0-|-4-2--0-5-4----|-4-2--0-4-2--0-|-4-0-5-0-5/-7-||
G||----------------|---------------|---------------|--------------||  x2
D||----------------|---------------|---------------|--------------||
A||----------------|---------------|---------------|--------------||
E||----------------|---------------|---------------|--------------||


E||--------------------------|-------------------------|----||
B||--------------------------|-------------------------|----|| 
G||--------------------------|-------------------------|----||
D||--6--6--6--6--6--6--6--6--|--7--7--4----4--4--4--4--|----|| 
A||--6--6--6--6--6--6--6--6--|--7--7--4----4--4--4--4--|----|| x4
E||--4--4--4--4--4--4--4--4--|--5--5--2----2--2--2--2--|----||
     .  .  .  .  .  .  .  .     .  .  .    .  .  .  .

 KAFADAN ATTIM SALLADIM... ...BEN GONULDEN INANDIM

E||------------------|------------------|----------------------------------|------||
B||------------------|------------------|----------------------------------|------|| 
G||------------------|------------------|----------------------------------|------||
D||--7-7-7-7-7-7-7-7-|--6-6-6-6-6-6-6-6-|--7-7-7-7-4-4-4-4-6-6-6-6-6-6-6-6-|------|| x1
A||--7-7-7-7-7-7-7-7-|--6-6-6-6-6-6-6-6-|--7-7-7-7-4-4-4-4-6-6-6-6-6-6-6-6-|------||
E||--5-5-5-5-5-5-5-5-|--4-4-4-4-4-4-4-4-|--5-5-5-5-2-2-2-2-4-4-4-4-4-4-4-4-|------||
     . . . . . . . .    . . . . . . . .    . . . . . . . . . . . . . . . .

SARKINI SEC GEL BENIMLE... ...DALGANI GEC SEN BENIMLE

BATUHAN 
E||--------------------------|-------------------------|----||
B||--------------------------|-------------------------|----||
G||--------------------------|-------------------------|----||
D||--6--6--6--6--6--6--6--6--|--7--7--4----4--4--4--4--|----|| x4
A||--6--6--6--6--6--6--6--6--|--7--7--4----4--4--4--4--|----||
E||--4--4--4--4--4--4--4--4--|--5--5--2----2--2--2--2--|----||
     .  .  .  .  .  .  .  .     .  .  .    .  .  .  .

KAAN
E||----------------|---------------|---------------|--------------||
B||--4-2--0-4-2--0-|-4-2--0-5-4----|-4-2--0-4-2--0-|-4-0-5-0-5/-7-||
G||----------------|---------------|---------------|--------------||  x2
D||----------------|---------------|---------------|--------------||
A||----------------|---------------|---------------|--------------||
E||----------------|---------------|---------------|--------------||


E||--------------------------|-------------------------|----|| 
B||--------------------------|-------------------------|----|| 
G||--------------------------|-------------------------|----||
D||--6--6--6--6--6--6--6--6--|--7--7--4----4--4--4--4--|----|| 
A||--6--6--6--6--6--6--6--6--|--7--7--4----4--4--4--4--|----|| x4
E||--4--4--4--4--4--4--4--4--|--5--5--2----2--2--2--2--|----||
     .  .  .  .  .  .  .  .     .  .  .    .  .  .  .

        ELINI VERDIN SIKMADIM... ...SEN GONULDEN INANDIN

E||------------------|------------------|----------------------------------|------||
B||------------------|------------------|----------------------------------|------|| 
G||------------------|------------------|----------------------------------|------||
D||--7-7-7-7-7-7-7-7-|--6-6-6-6-6-6-6-6-|--7-7-7-7-4-4-4-4-6-6-6-6-6-6-6-6-|------|| x1
A||--7-7-7-7-7-7-7-7-|--6-6-6-6-6-6-6-6-|--7-7-7-7-4-4-4-4-6-6-6-6-6-6-6-6-|------||
E||--5-5-5-5-5-5-5-5-|--4-4-4-4-4-4-4-4-|--5-5-5-5-2-2-2-2-4-4-4-4-4-4-4-4-|------||
     . . . . . . . .    . . . . . . . .    . . . . . . . . . . . . . . . .

                   SARKINI SEC GEL BENIMLE... ...DALGANI GEC SEN BENIMLE

E||--------------------|--------------------|------------------|------||
B||--------------------|--------------------|------------------|------||
G||--------------------|--------------------|------------------|------|| 
D||--7--------9--------|--11----------------|------------------|------||
A||--7--------9--------|--11----------------|------------------|------|| x4
E||--5--------7--------|--9-----------------|------------------|------||

             EN GUZEL GECEM SIZINLE... ...CALARIM SOYLERIM KEYFE

BATUHAN 
E||--------------------------|-------------------------|----||
B||--------------------------|-------------------------|----||
G||--------------------------|-------------------------|----||
D||--6--6--6--6--6--6--6--6--|--7--7--4----4--4--4--4--|----|| x4
A||--6--6--6--6--6--6--6--6--|--7--7--4----4--4--4--4--|----||
E||--4--4--4--4--4--4--4--4--|--5--5--2----2--2--2--2--|----||
     .  .  .  .  .  .  .  .     .  .  .    .  .  .  .

KAAN
E||----------------|---------------|---------------|--------------||
B||--4-2--0-4-2--0-|-4-2--0-5-4----|-4-2--0-4-2--0-|-4-0-5-0-5/-7-||
G||----------------|---------------|---------------|--------------||  x2
D||----------------|---------------|---------------|--------------||
A||----------------|---------------|---------------|--------------||
E||----------------|---------------|---------------|--------------||

**************
SOLO

KAAN
E||-------------------------------|---------------------------------|
B||--7/-9--9/-10--10/-12--12/-14--|--14/-16--17--16--14--12--10--9--|
G||-------------------------------|---------------------------------|
D||-------------------------------|---------------------------------|
A||-------------------------------|---------------------------------|
E||-------------------------------|---------------------------------|

-------------------------------------|--------------------------------------|
--7--5--4~---14-12-16-14-12-10-12-10-|--14-12-10-9-10-9-12-10-9-7-4-5-7-5-4-|
-------------------------------------|--------------------------------------|
-------------------------------------|--------------------------------------|
-------------------------------------|--------------------------------------|
-------------------------------------|--------------------------------------|


------------4b---------|----------------------------|---------------------------|
--2----9---------5--4--|-------------------4--5-----|--4--5~------7--4--5--5~---|
-----------------------|--4--6b-4--6~---6--------6--|----------6----------------|
-----------------------|----------------------------|---------------------------|
-----------------------|----------------------------|---------------------------|
-----------------------|----------------------------|---------------------------|
 
--4b---------------------|---------------------------------------------|
-----5--4b---------------|-----5----------------------9b---5--4~-------|
-----------6b-4--6~---4--|--6-----4--2--1h2p1----1---------------------|
-------------------------|--------------------4------------------------|
-------------------------|---------------------------------------------|
-------------------------|---------------------------------------------|


-----------------------------------|--4b--------4--------|---------------------||
----4-5---4-5---7-4-5---4---2------|-------5-------------|---------------------||
--6-----6-----6-------6---4---2----|---------------------|--6b---4----6--------||  
-----------------------------------|---------------------|---------------------|| 
-----------------------------------|---------------------|---------------------||
-----------------------------------|---------------------|---------------------||

BATUHAN
E||------------------|------------------|----------------------------------|------||
B||------------------|------------------|----------------------------------|------|| 
G||------------------|------------------|----------------------------------|------||
D||--7-7-7-7-7-7-7-7-|--6-6-6-6-6-6-6-6-|--7-7-7-7-4-4-4-4-6-6-6-6-6-6-6-6-|------|| 
A||--7-7-7-7-7-7-7-7-|--6-6-6-6-6-6-6-6-|--7-7-7-7-4-4-4-4-6-6-6-6-6-6-6-6-|------|| x1
E||--5-5-5-5-5-5-5-5-|--4-4-4-4-4-4-4-4-|--5-5-5-5-2-2-2-2-4-4-4-4-4-4-4-4-|------||
     . . . . . . . .    . . . . . . . .    . . . . . . . . . . . . . . . .

E||----------------------|----------------------|------------------|------||
B||----------------------|----------------------|------------------|------||
G||----------------------|----------------------|------------------|------|| 
D||--7---7-----9---9-----|--11---11-------------|------------------|------||
A||--7---7-----9---9-----|--11---11-------------|------------------|------|| x4
E||--5---5-----7---7-----|--9----9--------------|------------------|------||
 
     
E||------------------------------|----------------------------------||
B||------------------------------|----------------------------------||
G||------------------------------|----------------------------------||
D||------------------------------|----------------------------------|| 
A||------------------------------|----------------------------------|| 
E||--9--9--9--9--11--11--11--11--|--12--12--12--12--14--14--14--14--|| 
************

E||--------------------------|--------------------------||
B||--------------------------|--------------------------||
G||--------------------------|--------------------------|| 
D||--------------------------|--------------------------|| x4
A||--------------------------|--------------------------||
E||--4--4--4--4--4--4--4--4--|--5--5--5--2--2--2--2--2--||
     .  .  .  .  .  .  .  .     .  .  .  .  .  .  .  .
 
  KAFADAN ATTIM SALLADIM.... ...BEN GONULDEN INANDIM

E||------------------|------------------|----------------------------------|------||
B||------------------|------------------|----------------------------------|------|| 
G||------------------|------------------|----------------------------------|------||
D||--7-7-7-7-7-7-7-7-|--6-6-6-6-6-6-6-6-|--7-7-7-7-4-4-4-4-6-6-6-6-6-6-6-6-|------|| x1
A||--7-7-7-7-7-7-7-7-|--6-6-6-6-6-6-6-6-|--7-7-7-7-4-4-4-4-6-6-6-6-6-6-6-6-|------||
E||--5-5-5-5-5-5-5-5-|--4-4-4-4-4-4-4-4-|--5-5-5-5-2-2-2-2-4-4-4-4-4-4-4-4-|------||
     . . . . . . . .    . . . . . . . .    . . . . . . . . . . . . . . . .

     SARKINI SEC GEL BENIMLE... ...DALGANI GEC SEN BENIMLE   

E||--------------------------|--------------------------|--------------------------------------||
B||--------------------------|--------------------------|--------------------------------------||
G||--------------------------|--------------------------|--------------------------------------|| 
D||--7-7-7-7-7-7-7-7-7-7-7-7-|--9-9-9-9-9-9-9-9-9-9-9-9-|--11-11-11-11-11-11-11-11-11-11-11-11-||
A||--7-7-7-7-7-7-7-7-7-7-7-7-|--9-9-9-9-9-9-9-9-9-9-9-9-|--11-11-11-11-11-11-11-11-11-11-11-11-|| x4
E||--5-5-5-5-5-5-5-5-5-5-5-5-|--7-7-7-7-7-7-7-7-7-7-7-7-|--9--9--9--9--9--9--9--9--9--9--9--9--||
     . . . . . . . . . . . .    . . . . . . . . . . . .    .  .  .  .  .  .  .  .  .  .  .  .

                        EN GUZEL GUNUM GECEM SIZINLE... ...CALARIM SOYLERIM KEYFE

b    = bend
~    = vibrato
h    = hammer on
p    = pull off
/    = slide
.    = palm muting


EN GUZEL GUNUM GECEM LYRICS
---------------------------
kafadan attım salladım
türkülerden de çaldım
sahnelere çıkıp içtim oynadım
ben gönülden inandım

şarkını seç gel benimle
beraber bağıralım
dalganı geç sen benimle...

elini verdin sıkmadım
boynundan sarıldım
tekme tokat öne geçtin bıkmadın
sen gönülden inandın

şarkını seç gel benimle
beraber bağıralım
dalganı geç sen benimle...

EN GUZEL GUNUM GECEM sizinle
bu nasıl sevgidir böyle
en guzel günüm bu gece
çalarım söylerim keyfe
Tap to rate this tab
# A B C D E F G H I J K L M N O P Q R S T U V W X Y Z