Song name
# A B C D E F G H I J K L M N O P Q R S T U V W X Y Z

Duman - Mor Ve Otesi tab

Duman-Mor ve Otesi
mor ve otesi
E--------------------------------------------------------------------------------|
B-------0-----------------1--0--0-----------0------------------------------------|
G----------2-2--0-0---------------2-2--0--------2-2-1-1--------------------------|
D-2-3-2-------------3-3-2---------------3-2-------------3-3-2--2-3-2-0-2-0-------|
A--------------------------------------------------------------------------2-3-4-|
E--------------------------------------------------------------------------------|


E---------------------------------------------------------------------------------|
B------0----------------3-1-0-0-------------0-------------------------------------|
G--------2-2--0-0---------------2-2---0-------2-2-1-1----1------------------------|
D-2-3-2-----------3-3-2-----------------3-2-----------3-3-------------------------|
A---------------------------------------------------------------------------------|
E---------------------------------------------------------------------------------|
hope you like it by furkan arasli
feel free to ask questions
Tap to rate this tab
 
# A B C D E F G H I J K L M N O P Q R S T U V W X Y Z