Song name
# A B C D E F G H I J K L M N O P Q R S T U V W X Y Z

Duman - Haberin Yok Oluyorum tab

this is the opening riff kaan used in the bmg concert its a little bit different than the album one:

E|-----------------------------------||
B|-----------------------------------||
G|--------6-------6-------6--------4-||
D|--------6---6-6-6-------6--------4-|| 
A|--4-4-4-------------4-4-----4-4----||
E|------5----------------------5-----||

its like this in the album(play it with palm muting):

E|-----------------------------------||
B|-----------------------------------||
G|--------6-------6-------6--------4-||
D|--------6-------6-------6--------4-|| 
A|--4-4-4---4-4-4-----4-4-----4-4----||
E|-----------------------------------||

and keeps doing that during the verses:

Bakma bana öyle derin 
İsim olmaz senle benim
Hic bu kadar sevilmedin
Gozlerinden okuyorum

Haberin yok oluyorum

after kaan says gozlerinden okuyorum he hits a:
E|--4--||
B|--4--||
G|--4--||
D|--4--||   with tremolo and says "haberin yok oluyorum" 
A|--4--||
E|--4--||

during the first verse batuhan doesnt play
in the second verses he plays C#m all over
(he kind of plays in random order)

the 2nd verse:
Sorma bana nerelisin
Ne icersin ne giyersin
Derdim sana derman olsun
Ben gonulden okuyorum

Haberin yok oluyorum...

then the pre chorus starts:

Azdı yine deli gonul
Uzerine geliyor
Gecti yine bos bir omur
Ellerinden opuyorum
Haberin yok oluyorum
Haberin yok oluyorum...

during the pre chorus kaan plays:
E|-----------------------------------||
B|-----------------------------------||
G|--------6-------6-------6--------4-||
D|--------6-------6-------6--------4-|| 
A|--4-4-4---4-4-4-----4-4-----4-4----||
E|-----------------------------------||
all over and without palm muting

batuhan does the same thing(C#m)

And the chorus....

F#              A
  Haberin yoook ben oluyorum
C#m            G# A
  Sen gelirken ben gidiyorum
F#              A
  Dermanim yook ben oluyorum
C#m            G# A
  Ayrilirken ben iciyoruuum

F#              A 
  Haberin yoook ben oluyorum.....

C#m            G# A


batuhan keep playing the chords as shown above
then kaan starts the solo   
Tap to rate this tab
# A B C D E F G H I J K L M N O P Q R S T U V W X Y Z