Song name
# A B C D E F G H I J K L M N O P Q R S T U V W X Y Z

Duman - Yanlizlik Paylasilmaz tab

i didnt got the whole song only the intro and verse i will submit full tab when i know 
rest of the song

intro
E-------------------------------------------------------------------------|
B--------------------------------------------------------------6----------|
G--5--5--7--5--7----8--8--8--7--5------5--5--7--5--7---5--7--8----8--7--5-|
D----------------0-----------------------------------0--------------------|
A-------------------------------------------------------------------------|
E-------------------------------------------------------------------------|
verse
E-------------------------------------------------------------------------|
B--------------------------------------------------------------6----------|
G--5--5--7--5--7----8--8--8--7--5------5--5--7--5--7---5--7--8----8--7--5-|
D----------------0-----------------------------------0--------------------|
A-------------------------------------------------------------------------|
E-------------------------------------------------------------------------|
Tap to rate this tab
# A B C D E F G H I J K L M N O P Q R S T U V W X Y Z