Dumbfounded - Different Galaxies tab

Different Galaxies

whole song basically repeats. your welome hopefully this works for you <3 peace.

the x's mean you slap or hit or tap the guitar.

e--------x-----------x-----------x-----------x-----|
b--------x-----------x-----------x-----3--3--x--3--|
g--7--7--x-7---7--7--x-7---5--5--x-5---0--0--x--0--|
d--7--7--x-7---7--7--x-7---5--5--x-5---0--0--x--0--|
a--7--7--x-7---9--9--x-9---7--7--x-7---------x-----|
e--8--8--x-8---7--7--x-7---5--5--x-5---3--3--3--3--|

e--------x-----------x------------------------|
b--------x-----------x----7-7-7-6-5-5----5----|
g--7--7--x-7---7--7--x-8--7-7-7-6-5-5---4-----|
d--7--7--x-7---7--7--x-8--6-6-6-5-4-4--3------|
a--7--7--x-7---9--9--x-9--7-7-7-6-5-5---------|
e--8--8--x-8---7--7--x-8--------------3-------| back to beginning
Tap to rate this tab
 
# A B C D E F G H I J K L M N O P Q R S T U V W X Y Z