Song name
# A B C D E F G H I J K L M N O P Q R S T U V W X Y Z

Dumdum Boys - Enhjrning tab

Tuning: Standard

Intro & Chorus

e|------------------------------------------------------------|
B|------------------------------------------------------------|
G|--7--7--6--6------------------------------------------------| 
D|--7--7--6--6-------4--4--4--4-------------------------------|
A|--5--5--4--4-------4--4--4--4-------------------------------|
E|---------------0---2--2--2--2-------------------------------|

e|------------------------------------------------------------|
A|------------------------------------------------------------|
G|------------------------------------------------------------|
D|--7b~~7777-----4--------------------------------------------|
A|--7b~~7777-----4--------------------------------------------|
E|--5b~~5555---0-2--------------------------------------------|

Verse: 

e|------------------------------------------------------------|
B|------------------------------------------------------------|
G|--4--6-------4--6-------4--6-------4--6---------------------|
D|--4--6--4----4--6--7----4--6--4----4--6--4------------------|
A|--2--4--4----2--4--7----2--4--4----2--4--4------------------|
E|--------2----------5----------2----------2------------------|

Chorus: 

e|------------------------------------------------------------|
B|------------------------------------------------------------|
G|---------7--7--6--6-----------------------------------------| 
D|---------7--7--6--6-------4--4--4--4------------------------|
A|---------5--5--4--4-------4--4--4--4------------------------|
E|-0--2h/5--------------0---2--2--2--2------------------------|

e|------------------------------------------------------------|
A|------------------------------------------------------------|
G|------------------------------------------------------------|
D|--7b~~7777-----4--------------------------------------------|
A|--7b~~7777-----4--------------------------------------------|
E|--5b~~5555---0-2--------------------------------------------|

Verse.2

Guitar riff right before chorus: 

e|------------------------------------------------------------|
A|------------------------------------------------------------|
G|------------------------------------------------------------|
D|--2-4b---4h2------------------------------------------------|
D|-4----------4~~---------------------------------------------|
A|------------------------------------------------------------|
E|------------------------------------------------------------|

Chorus.2

Solo with wah:

e|------------------------------------------------------------|
A|--------------------------5--7--8---3--2--7--9---11---------|
G|--------------------------7b-9b-10b-5b-4b-9b-11b-13b--------|
D|---4--3--2--------------------------------------------------|
A|----------0h2p0-2-3h2p0-------------------------------------|
E|------------------------------------------------------------|

e|------------------------------------------------------------|
A|-11-13-11-13b--13-11-13-13b----13-11-13-11------------------|
G|------------------------------------------13----------------|
D|------------------------------------------------------------|
D|------------------------------------------------------------|
A|------------------------------------------------------------|
E|------------------------------------------------------------|

Verse.3

Final chorus.
Tap to rate this tab
 
# A B C D E F G H I J K L M N O P Q R S T U V W X Y Z