Guitaretab - guitar tabs
Song name
# A B C D E F G H I J K L M N O P Q R S T U V W X Y Z

Dumdum Boys - Splitter Pine tab

-------------------------------------------------------------------------------
			     Splitter Pine - Dum Dum Boys
-------------------------------------------------------------------------------
Tabbed by: Vegard
Email:

Tuning:E

[ Tab from: http://www.guitaretab.com/d/dumdum-boys/52538.html ]
e|--------------------------------------------------------------------------------3---3----|
B|--------------------------------------------------------------------------------2---2----|
G|-----------------------4-------------------------4--------------------------4---3-2-3----|
D|---4-3-0-2-0-----------4-----4-3-0-2-0-----------4-----4-3-0-2-0------------4---0-2------|
A|-2-----------2-0-2-(0)-2---2-----------2-0-2-(0)-2---2-----------2-0-2-(0)--2-----0------|
E|-----------------------------------------------------------------------------------------|


B     A
Hei, hvor enn du er i verden
E             G
Det er deilig å sløve i skyggen
B               A
Hold deg våken, nå skjerpes greiene
E            G             B
Store høvding skviser litt hardere


G        E  
Mas, mas, mas over hele linja
B
Mandag hele året
A
Det er ingen ting å le av
E
Men jeg kan ikke la være


       B-A 
Splitter piiiine
       E      G
Splitter pine




| /  slide up
| \  slide down
| h  hammer-on
| p  pull-off
| ~  vibrato
| +  harmonic
| x  Mute note
===============================================================================
Related for Splitter Pine tab
Advertisement will be closed in 10 seconds