Song name
# A B C D E F G H I J K L M N O P Q R S T U V W X Y Z

Dumme Jungs - Daylight tab

http://www.youtube.com/watch?v=XiEuSC9DlfU
http://www.myspace.com/dummejungs

-------------------------------------------------------------------------------
			     Dumme Jungs - Daylight (Guitar cover)
-------------------------------------------------------------------------------
Tabbed by: Daniel Stapleton (AKA mtb_kng)
Email: mtbkng@gmail.com

Tuning: Standard

Intro: x1
e|---------------------------------------------------------------------------|
B|---------------------------------------------------------------------------|
G|---------------------------------------------------------------------------|
D|-----------------------------------------------------3-6-6-----------------|
A|----6-6-5-3---------6-6-5-3--------6-6-5-3-------6-6-----------------------|
E|---------------------------------------------------------------------------|
The bit after the intro: x2
e|---------------------------------------------------------------------------|
B|---------------------------------------------------------------------------|
G|---------------------------------------------------------------------------|
D|-------------------5-5-5-3---------5-3-----6-5--5---5-3--------------------|
A|-3-3-6-6-6-5---3-3---------6---3-3----------------------6666---------------|
E|---------------------------------------------------------------------------|
The bit after the bit after the intro: x1
e|---------------------------------------------------------------------------|
B|---------------------------------------------------------------------------|
G|---------------------------------------------------------------------------|
D|----55555555555555555555555555555555555555555----------333-----------------|
A|----33333333333333333333333333333333333333333----666---111-----------------|
E|-------------------------------------------------444-----------------------|
"The Daylight!": x2
e|---------------------------------------------------------------------------|
B|-------------------------89------------------------------------------------|
G|-------8888------5555------------------8888------5555----------------------|
D|--5555-6666-8888-3333-------------5555-6666-8888-3333----------------------|
A|--3333------6666------------------3333------6666---------------------------|
E|---------------------------------------------------------------------------|
In the middle somewhere: x4
e|---------------------------------------------------------------------------|
B|---------------------------------------------------------------------------|
G|-555555555555555555555555555555555--------5--------------------------------|
D|-555555555555555555555555555555555--------3---8----------------------------|
A|-333333333333333333333333333333333------------6----------------------------|
E|---------------------------------------------------------------------------|
Play this a few times:
e|---------------------------------------------------------------------------|
B|-------------------------89------------------------------------------------|
G|-------8888------5555------------------8888------5555----------------------|
D|--5555-6666-8888-3333-------------5555-6666-8888-3333----------------------|
A|--3333------6666------------------3333------6666---------------------------|
E|---------------------------------------------------------------------------|
Play this a few times then:
e|---------------------------------------------------------------------------|
B|---------------------------------------------------------------------------|
G|---------------------------------------------------------------------------|
D|---------------------------------------------------------------------------|
A|---33-55-66---66-6---------------------------------------------------------|
E|---------------------------------------------------------------------------|
Then: x3
e|---------------------------------------------------------------------------|
B|---------------------------------------------------------------------------|
G|---------------------------------------------------------------------------|
D|--5555---------8888--8888--------------------------------------------------|
A|--3333----8888-6666--6666--------------------------------------------------|
E|----------6666-------------------------------------------------------------|
Play this a few times to finish:
e|---------------------------------------------------------------------------|
B|---------------------------------------------------------------------------|
G|-------8888------5555------------------8888------5555----------------------|
D|--5555-6666-8888-3333-------------5555-6666-8888-3333----------------------|
A|--3333------6666------------------3333------6666---------------------------|
E|---------------------------------------------------------------------------|

************************************
Tap to rate this tab
 
# A B C D E F G H I J K L M N O P Q R S T U V W X Y Z