Song name
# A B C D E F G H I J K L M N O P Q R S T U V W X Y Z

Dumpstaphunk - Livin In A World Gone Mad tab

-------------------------------------------------------------------------------
	    Livin' in a Worl Gone Mad - Ivan Neville's Dumpstaphunk
-------------------------------------------------------------------------------
Tabbed by: PeopleOfThaSun3
Email: peopleofthasun3@yahoo.com

Tuning:EBGDAE
     
Intro/Verse
        e|--------3-3-3---------0-----0-0---------3-3-3-----------0-----0-0----------------------|
B|--------3-3-3---------0-----0-0---------3-3-3-----------0-----0-0----------------------|
G|--------4-4-4---------1-x-x-1-1---------4-4-4-----------1-x-x-1-1----------------------|
D|--------5-5-5--x-x-x--2-x-x-2-2-x-x-----5-5-5--x--------2-x-x-2-2----------------------|
A|----4~--5-5-5--x-x-x--2-x-x-2-2-x-x-4~--5-5-5--x--5h7---2-x-x-2-2----------------------|
E|--------3-3-3--x-x-x--0-----0-0-x-x-----3-3-3--x--------0-----0-0----------------------|
       
          
e|--------3-3-3---------0-----0-0---------3-3-3---------5-4-3-----------------------------|
B|--------3-3-3---------0-----0-0---------3-3-3---------7-6-5-----------------------------|
G|--------4-4-4---------1-x-x-1-1---------4-4-4---------6-5-4-----------------------------|
D|--------5-5-5--x-x-x--2-x-x-2-2-x-x-----5-5-5--x-x-x--5-4-3-----------------------------|
A|----4~--5-5-5--x-x-x--2-x-x-2-2-x-x-4~--5-5-5--x-x-x--7-6-5-----------------------------|
E|--------3-3-3--x-x-x--0-----0-0-x-x-----3-3-3--x-x-x--5-4-3-----------------------------|

Chorus:
                                 
e|-------------------------------5-4-3----------------------------------------------|
B|-------------------------------7-6-5----------------------------------------------|
G|-------------------------------6-5-4----------------------------------------------|
D|----7-x-x-5-x-x-7-x-5-x-7-5----5-4-3----------------------------------------------|
A|-------------------------------7-6-5----------------------------------------------|
E|-------------------------------5-4-3----------------------------------------------|

Solo:

e|--------------------------------------------------------------------------12-|
B|--5----7------------------------------------------------------------15b17----|
G|--7b9--9b11-----------7--------9~-------12~-14b16r14~-12~-14b16--------------|
D|------------5---5-7/9---9-9/11----12/14-------------------------12-----------|
A|--------------7--------------------------------------------------------------|
E|-----------------------------------------------------------------------------|

e|---------------------------------------------------------------------------|
B|---------------------------------------------------------------------------|
G|----------------------------------------12-12~----12-14b16r14--------------|
D|-----12-14p12----14p12----14p12-----/14--------14-------------12-----------|
A|--14----------14-------14-------14-----------------------------------------|
E|---------------------------------------------------------------------------|

e|---------------------------------------------------------------------------|
B|------------12-12-15-14-12-12-15-14-12~------------------------------------|
G|---------12----------------------------------------------------------------|
D|------12-------------------------------------------------------------------|
A|--/14----------------------------------------------------------------------|
E|---------------------------------------------------------------------------|

e|-15/17-15-17b19-17b19--15p12-12-15p12-------------------------12-----------------|
B|--------------------------------------15-------------12-15b17----12--------------|
G|-------------------------------------------12-12-14b16----------------14b16~-----|
D|---------------------------------------------------------------------------------|
A|---------------------------------------------------------------------------------|
E|---------------------------------------------------------------------------------|

e|-----------------------------------------12-------------15b17-15-12--------|
B|---------------------12-15-14-12~--12h14----15-14~-------------------------|
G|------12-12-14b16~-----------------------------------12--------------------|
D|--/14----------------------------------------------------------------------|
A|---------------------------------------------------------------------------|
E|---------------------------------------------------------------------------|

e|-----------12----------------------------------------------0-----0---------|
B|--12-15b17---------3-3-3-----3-3-3-----3-5p3-5~--------3b5---3b5-----------|
G|---------------2/4-------2/4-------2/4-----------4\2-0---------------------|
D|---------------------------------------------------------------------------|
A|---------------------------------------------------------------------------|
E|---------------------------------------------------------------------------|

e|---------------------------------------------------------------------------|
B|------3b5------------------------------------------------------------------|
G|--2-0-----2-0-2\-----------------------------------------------------------|
D|--------------2\-----------------------------------------------------------|
A|---------------------------------------------------------------------------|
E|---------------------------------------------------------------------------|

Final Chorus:
                               
e|-------------------------------5-4-3----3-2-1-----8---7-6------------------------------|
B|-------------------------------7-6-5----5-4-3-----10--9-8------------------------------|
G|-------------------------------6-5-4----4-3-2-----10--9-8------------------------------|
D|----7-x-x-5-x-x-7-x-5-x-7-5----5-4-3----3-2-1-----10--9-8------------------------------|
A|-------------------------------7-6-5----5-4-3-----8---7-6------------------------------|
E|-------------------------------5-4-3----3-2-1------------------------------------------|

| r  release
  b  bend
| /  slide up
| \  slide down
| h  hammer-on
| p  pull-off
| ~  vibrato
| +  harmonic
| x  Mute note
===============================================================================
Tap to rate this tab
 
# A B C D E F G H I J K L M N O P Q R S T U V W X Y Z