Song name
# A B C D E F G H I J K L M N O P Q R S T U V W X Y Z

Dumptruk Karavan - Broken Glass tab

Help us improve GuitareTab! Take a short survey!
Song: Broken Glass
Album: The History of Things to Come
Artist: Dumptruk Karavan
Label: Arista


Intro

--------------------------|
--------------------------|
--------------------------|
-9---9---7---7---9---7/5--|
-9---9---7---7---9---7/5--|
-7---7---5---5---7---5/3--|


Verse

---------------------------------------------------|
--------0---------0---------0----------------------|
--------------------------------------2---2--------|
-----1-----1---2-----2---1-----1----1-------1------|
---------------------------------------------------|
---3---------3---------3---------3------------3----|

Chorus

--------------------------|
--------------------------|
--------------------------|
--3--3--3/4--4--4/3---3---|
--3--3--3/4--4--4/3---3---|
--1--1--1/2--2--2/1---1---|
Related for Broken Glass tab