Song name
# A B C D E F G H I J K L M N O P Q R S T U V W X Y Z

Dumptruk Karavan - Clover tab

artist: dumptruk karavan
song: clover
album: horizons

intro (plat through twice)

----------------------------------------------------|
----------------------------------------------------|
----------------------------------------------------|
---------2-----------4-----------2------------------|
------4-----4-----0-----0-----4-----4---------------|
---3-----------3-----------3-----------3/2----------|


verse

--------------------------------------|
--------------------------------------|
--------------------------------------|
--7-7-7-5-5-7-9---9/7--5-7------------|
--7-7-7-5-5-7-9---9/7--5-7------------|
--7-7-7-5-5-7-9---9/7--5-7------------|

chorus

--------------------------------------------------|
--------------------------------------------------|
--------------------------------------------------|
---3--5-5-5---3--5-5-5---3------------------------|
---3--5-5-5---3--5-5-5---3------------------------|
---1--3-3-3---1--3-3-3---1------------------------|
Tap to rate this tab
# A B C D E F G H I J K L M N O P Q R S T U V W X Y Z