Song name
# A B C D E F G H I J K L M N O P Q R S T U V W X Y Z

Duncan Browne - Ninepence Worth Of Walking tab

------------------------------------------------------------------------------
               NINEPENCE WORTH OF WALKING - Duncan Browne
------------------------------------------------------------------------------
Tabbed by: Steve Herrick
Email: sevenand7is27@hotmail.com

My favorite song off his album "Give Me Take You" from 1968.  I tabbed
this out for myself, but maybe there's someone else in the world who'd like it.  He has 
official website, but here is his allmusic page:


Tuning: E A D G B e

Capo 5th Fret

   Monday    tuesday     wednesday  thursday
   Come the  day when    I will     disappear
e|-----0------|-----0-----0|-----0------|-----0-----0|
B|-2-----2----|-3-----3----|-2-----2----|-3-----3----|
G|------------|---4-----4--|------------|---4-----4--|
D|-------2----|-------4----|-------2----|-------4----|
A|-0----------|-0----------|-0----------|-0----------|
E|------------|------------|------------|------------|

   friday night
   from site
e|-----0------|------------|-0----------|-0----0----|
B|-2-----2--0-|----0-----0-|-------0----|-----------|
G|------------|--1-----1---|-----1----1-|----1----1-|
D|-------2----|------1-----|-------1----|------1----|
A|-0----------|2-----------|-2----------|-2---------|
E|------------|------------|------------|-----------|

   Goodbye's made easy said  with  sleepy  eyes
   Better  a  tear of truth than  smiling  lies
e|-0---0---0---0---0---0---0---0---0---0---0---0---0---0---0---0-----------------|
B|-2---2---3---3---2---2---3---3---2---2---3---3---2---2---3---3-----------------|
G|-1---1---2---2---1---1---2---2---1---1---2---2---1---1---2---2-----------------|
D|-0---0---0---0---0---0---0---0---0---0---0---0---0---0---0---0-----------------|
A|-2---2---2---2---2---2---2---2---2---2---2---2---2---2---2---2-----------------|
E|-0---0---2---2---0---0---2---2---0---0---2---2---0---0---2---2-----------------|


Lyrics:

Monday, tuesday, wednesday, thursday, friday night,
Come the day when I will disappear from sight.
Goodbye's made easy said with sleepy eyes,
Better a tear of truth than smiling lies.

Summer, monday, when I met you I was real,
Now it's winter, friday, I no longer feel.
Will you remember me as just a friend?
Or see the start of spring and not the end.

Monday, tuesday, wednesday, thursday, friday night,
Come the day when I will disappear from sight.
Goodbye's made easy said with sleepy eyes,
Better a tear of truth than smiling lies.

If I didn't know you then I know you now,
And seeing doesn't last forever anyhow.
So hold me close and kiss me with a smile,
For I must leave you in a little while.

When you wake up monday morning, I'll be gone,
Leaving with you the news of immortal song.
If I stayed with you we would drift apart.
This way I'm always with you in your heart.

Monday, tuesday, wednesday, thursday, friday night,
Come the day when I will disappear from sight.
Goodbye's made easy said with sleepy eyes,
Better a tear of truth than smiling lies.
===============================================================================
Tap to rate this tab
 
# A B C D E F G H I J K L M N O P Q R S T U V W X Y Z