Song name
# A B C D E F G H I J K L M N O P Q R S T U V W X Y Z

Duncan Sheik - White Limousine tab

99% correct
CAPO ON 1ST FRET....

intro
e|-------11-------------10----|
B|----12-------------12-------|
G|--9-------------12----------|
D|----------------------------|
A|----------------------------|
E|----------------------------|

verse
e|----0------0------|
B|----0------0------|
G|----8------7------| Strum
D|----6------5------|
A|----7------7------|
E|----0------x------|

chorus
e|--0-----0-----0------|
B|--0-----0-----0------|
G|--4-----3-----1------| Strum
D|--5-----4-----2------|
A|--5-----4-----2------|
E|--3-----2-----0------|



Tap to rate this tab
# A B C D E F G H I J K L M N O P Q R S T U V W X Y Z