Song name
# A B C D E F G H I J K L M N O P Q R S T U V W X Y Z

Duncan Sheik - For You tab

Here is For You by Duncan Sheik... close to perfect

E-------2------------2------------2-----2-----------------------|
B-------3-------------3-----------3------3-------2-3-3----------|
G---------------------------------------------------------------|
D---0-----------------------------------------------------------|
A-----------------0------0------2---2------2--------------------|
E---------------------------------------------------------------|


E-------2------------2------------2-----2-----------------------|
B-------3-------------3-----------3------3-------2-3-3----------|
G---------------------------------------------------------------|
D---0-----------------------------------------------------------|
A-----------------0------0--------------------------------------|
E-------------------------------3---3-------3-------------------|


E-------2------------2------------2-----2-----------------------|
B-------3-------------3-----------3------3-------2-3-3----------|
G---------------------------------------------------------------|
D---0-----------------------------------------------------------|
A-----------------0------0------2---2------2--------------------|
E---------------------------------------------------------------|

E-------2------------2----------------2-3-3--------3-3------3-3-------------------|
B-------3-------------3---------------3------------3-3------3-3-------------------|
G---------------------------------0----------------0-0------0-0-------------------|
D---0----------------------------------------------0-0------x-x-------------------|
A-----------------0------0------3------------------x-x------0-0-------------------|
E---------------------------------------------3-----3-3---------------------------|
Tap to rate this tab
# A B C D E F G H I J K L M N O P Q R S T U V W X Y Z