Song name
# A B C D E F G H I J K L M N O P Q R S T U V W X Y Z

Duncan Sheik - That Says It All tab

-------------------------------------------------------------------------------
			     That says it all - Duncan Sheik
-------------------------------------------------------------------------------
Tabbed by: Paradox Knight

Tuning: EADGBe

This is my first attempt at writing tab, so bare with me.

This is a song I took an immediate liking to, mostly because of the intro. 
Listening to the recording, I'm guessing that the introduction is played in 
two parts by a twelve-string and an electric guitar.
However, the song is relatively easy and can be
played on a 6 string acoustic with next to no difficulty. Enjoy.

Intro:

e|----------------------4-4-4-4-5-5p4p0--------------------------------------|
B|-----------------0---------------------------------------------------------|
G|-------------1h2-----------------------------------------------------------|
D|----------2----------------------------------------------------------------|
A|-----2h4-------------------------------------------------------------------|
E|---0-----------------------------------------------------------------------|

e|---------------------------------------------------------------------------|
B|-----------------0----2p1-2p1-2p1-2p1--------------------------------------|
G|-------------1h2------2---2---2---2----------------------------------------|
D|----------2----------------------------------------------------------------|
A|-----2h4-------------------------------------------------------------------|
E|---0-----------------------------------------------------------------------|

Repeat x2

May not be note-perfect but it sounds great played against
the track. Cheers.
Tap to rate this tab
 
# A B C D E F G H I J K L M N O P Q R S T U V W X Y Z