Song name
# A B C D E F G H I J K L M N O P Q R S T U V W X Y Z

Duncan Sheik - On A High tab

This is how i play it. 
and it sounds right.
you can figure out the strumming for yourselves, it's not hard.
ENJOY!

Intro/First Verse:
e|------------------------------------------------------------|
B|------------------------------------------------------------|
G|----------------------------66----66----66----66------------|
D|----77----77----66----66----66----66----66----66------------|  6x
A|----77----77----66----66--44----44----44----44-----7-6---6--|
E|--55----55----44----44---------------------------------9----|

Chorus:
e|--0--0--0-0-0--0-0-0--|
B|--0--0--0-2-0--0-0-0--|
G|--4--x--2-2-2--1-2-1--|
D|--4--4--2-2-2--2-2-2--|  
A|--2--4--0-0-0--2-2-2--|
E|-----2--0-0-0--0-0-0--|

Second Verse:
e|--0--0--0--|
B|--0--0--0--|
G|--x--x--6--|
D|--7--6--6--|  4x
A|--7--6--4--|
E|--5--4-----|

Chorus 2x

Bridge:
e|--10---9---7---------7------------7~--|
B|-----7---7---7-10~-------10---9-------|
G|-----------------------9----9---9-----|
D|--------------------------------------|
A|--------------------------------------|
E|--------------------------------------|

e|--9---7--------7-12-11--20-19-17~--|
B|----7---7-10~----------------------|
G|-----------------------------------|
D|-----------------------------------|
A|-----------------------------------|
E|-----------------------------------|

Chorus 2x

Outro:
e|--0--0--0--0--|
B|--0--0--0--0--|
G|--4--x--2--1--|
D|--4--4--2--2--|
A|--2--4--0--2--|
E|-----2--0--0--|

There's more in the outro part, 
but i can't really hear all of it that well.

Here's the lyrics! :D

I'm on a high, on a high.
There's nothing more to it.
You're the sea and the sky 
and the blue that runs through it, yea.

And there are some who say
there are so many things I need.
So I run or I fight
and I crawl or I scream.
And I bleed, and I bleed, and I bleed.

It's a lie, it's a lie.
Don't you believe it.
If you're fine, then you're fine.
It's all how you see it.
Oh, there never will be
no conspiracy of happiness.

I'm on a high, on a high.
There's nothing more to it.
I have the sun, it's a star.
Why should I refuse it?

And there are so many reasons
I could give you
why I should be down.
There's not enough money or time
and, my love, you're not around, around, around.

It's a lie, it's a lie.
Don't you believe it.
If you're fine, then you're fine.
It's all you see it.
Oh, there never will be 
no conspiracy of happiness.

You're alive, you're alive.
How else could you hear me?
You are fine, you are fine.
Nothing worth fearing.
Oh, there never will be 
no conspiracy of happiness.

I'm on a high, on a high.
You are the sea and the sky.
I'm on a high, on a high.
I'm on a high.

It's a lie, it's a lie.
Don't you believe it.
'Cause I've tried, and I've tried.
Can't really see it.
Now I'm trapped inside 
my conspiracy of happiness.

Said I was yours,
you were mine,
but I didn't really mean it.
And I lied, and I lied.
Wish you hadn't seen it.
Now I'm trapped inside
my conspiracy of happiness.
Tap to rate this tab
# A B C D E F G H I J K L M N O P Q R S T U V W X Y Z