Song name
# A B C D E F G H I J K L M N O P Q R S T U V W X Y Z

Dune - Go Go Valentina tab

Help us improve GuitareTab! Take a short survey!
Hello. This is tabs of song "Go go Valentina" by Danish group Dúné. I ask you not 
to confuse this group with German one - Dune.

I know only some parts of this track. Here are they:


Hey, Valentina, your face in the morror won't dissapear.. and so on..

e|----------------------|
H|----------------------|
G|-------5--4-----------|
D|--7----5--5---5----7--|
A|--7----3--2---5----7--|
E|--5-----------3----5--|


Guitar part (after second chorus):

e|-------------------|
H|-------------------|
G|-------------------|
D|----------3-3-2-2--|
A|--0-0-3-3----------|
E|-------------------|

and midi part:

e|--5--0------5-0------------3-0-----------------0--|
H|-----------------0--1-----------0--1---------1----|
G|--------------------------------------2-----------|
D|--------------------------------------------------|
A|--------------------------------------------------|
E|--------------------------------------------------|

ending of this silent part:
e|--5--0------5-0------------3-0-----------------0----------|
H|-----------------0--1-----------0--1---------1------1-0---|
G|--------------------------------------2-------------------|
D|----------------------------------------------------------|
A|----------------------------------------------------------|
E|----------------------------------------------------------|
Related for Go Go Valentina tab