Song name
# A B C D E F G H I J K L M N O P Q R S T U V W X Y Z

Dune - A Blast Beat tab

I figured out all sounds including the electonic parts of this song, maybe you will find 
matching effect to let it sound a bit similar to it.

intro and some parts in the verse:

Electronic part:
e|-------------------------------------------------|--------| x2 second
b|-------------------------------------------------|--------|    time play
g|-------------------------------------------------|--------|    on with the
d|----2-4----2-4----2-4----2-4---------------------|--------|    chorus at the
a|-2-4----2-4----2-4----2-4-------2-4----2-4----2-4|----2-4-|    line
E|-----------------------------2-4----2-4----2-4---|-2-4----|

Chorus:
e|--x-x-|--------------------------------------------------------------|
b|--x-x-|--------------------------------------------------------------|
g|--x-x-|-9-9--9-9--9-9--9-9--9999/10-10--10-10--10-10--10-10/12121212-|
d|--x-x-|-9-9--9-9--9-9--9-9--9999/10-10--10-10--10-10--10-10/12121212-|
a|--x-x-|-7-7--7-7--7-7--7-7--7777/-8--8---8--8---8--8---8--8/10101010-|
E|--x-x-|--------------------------------------------------------------|

Electro part:
e|-------------------------------------------|
b|-----------------------------------9-10~---|
g|--9-7-------7-6-------9-7-------7-6--------|
d|-----7~--------7~--------7~----------------|
a|-------------------------------------------|
E|-------------------------------------------|

I will figure out the rest of the electronic part sonn but now its no time left for it :D


If you would like to help me tabbing send me an email: smile4me88@web.de
Tap to rate this tab
 
# A B C D E F G H I J K L M N O P Q R S T U V W X Y Z