Song name
# A B C D E F G H I J K L M N O P Q R S T U V W X Y Z

Dune - Bloodlines tab

Artist: Dϊnι (http://www.dunesite.com)

Song: Bloodlines (http://youtube.com/watch?v=Ih4l204_Xnw)

Tabbed By: Dewne (http://www.myspace.com/dewnesite)

Ins.:

Guitar 1 – Standard tuning (E A D G B e)
Guitar 2 – Standard tuning (E A D G B e)

Intro:
Guitar 1
e|-------------------------------------------------------------|
B|------------------------3-3-4-4—-3-3-4-4--1-1-3-3—-1-1-3-3---|
G|--5-5-5-5---5-5-5-5------------------------------------------|
D|--5-5-5-5---5-5-5-5------------------------------------------|
A|--3-3-3-3---3-3-3-3------------------------------------------|
E|-------------------------------------------------------------|

Verse:
There’s no guitar in verses..

Der er ingen guitarer i versene..

Chorus:

Guitar 1
e|-----------------------------------------------------------------------------|
B|-----------------------------------------------------------------------------|
G|--5-5-5-5---5-5-5-5---5-5-5-5---5-5-5-5----8-8-8-8-8-8-8-8—-7-7-7-7-7-7-7-7--|
D|--5-5-5-5---5-5-5-5---5-5-5-5---5-5-5-5----8-8-8-8-8-8-8-8—-7-7-7-7-7-7-7-7--|
A|--3-3-3-3---3-3-3-3---3-3-3-3---3-3-3-3----6-6-6-6-6-6-6-6—-5-5-5-5-5-5-5-5--|
E|-----------------------------------------------------------------------------|

Guitar 2 (Figure out the timing, with Guitar 1..)
e|--------------------------------------|
B|--------------------------------------|
G|--------------------------------------|
D|--0-0-1-1--0-0-1-1--1-1-3-3---4-4-4---|
A|--------------------------------------|
E|--------------------------------------|

Pre-Verse:

Guitar 1
e|---------------------------------------|
B|--3-3-4-4—-3-3-4-4--1-1-3-3—-1-1-3-3---|
G|---------------------------------------|
D|---------------------------------------|
A|---------------------------------------|
E|---------------------------------------|

Verse:
No guitar..

Ingen guitar..

Chorus:

Guitar 1
e|-----------------------------------------------------------------------------|
B|-----------------------------------------------------------------------------|
G|--5-5-5-5---5-5-5-5---5-5-5-5---5-5-5-5----8-8-8-8-8-8-8-8—-7-7-7-7-7-7-7-7--|
D|--5-5-5-5---5-5-5-5---5-5-5-5---5-5-5-5----8-8-8-8-8-8-8-8—-7-7-7-7-7-7-7-7--|
A|--3-3-3-3---3-3-3-3---3-3-3-3---3-3-3-3----6-6-6-6-6-6-6-6—-5-5-5-5-5-5-5-5--|
E|-----------------------------------------------------------------------------|

Guitar 2 (Figure out the timing, with Guitar 1..)
e|--------------------------------------|
B|--------------------------------------|
G|--------------------------------------|
D|--0-0-1-1--0-0-1-1--1-1-3-3---4-4-4---|
A|--------------------------------------|
E|--------------------------------------|

Chorus 2:

Guitar 1 (Figure out the rhythm at the end)
e|-----------------------------------------------------------------------------|
B|-----------------------------------------------------------------------------|
G|--5-5-5-5---5-5-5-5---5-5-5-5---5-5-5-5----8-8-8-8-8-8-8-8—7-7-7-7-7---7--7--|
D|--5-5-5-5---5-5-5-5---5-5-5-5---5-5-5-5----8-8-8-8-8-8-8-8—7-7-7-7-7---7--7--|
A|--3-3-3-3---3-3-3-3---3-3-3-3---3-3-3-3----6-6-6-6-6-6-6-6—5-5-5-5-5---5--5--|
E|-----------------------------------------------------------------------------|
                                There isn’t any delay here ^^^^

Guitar 2 (Figure out the timing, with Guitar 1..)
e|--------------------------------------|
B|--------------------------------------|
G|--------------------------------------|
D|--0-0-1-1--0-0-1-1--1-1-3-3---4-4-4---|
A|--------------------------------------|
E|--------------------------------------|

Pre-Bridge:

Guitar 2 (Figure out the timing)
e|------------------------------------------|
B|------------------------------------------|
G|--x-x-x-x-x-x-x-x-x-x-x-x-x-x-x-x-x-x-x---|
D|--x-x-x-x-x-x-x-x-x-x-x-x-x-x-x-x-x-x-x---|
A|--x-x-x-x-x-x-x-x-x-x-x-x-x-x-x-x-x-x-x---|
E|--x-x-x-x-x-x-x-x-x-x-x-x-x-x-x-x-x-x-x---|
   |-------------------------------------|    
Guitar scratching ^^^^

Then comes

Guitar 1  (Figure out the timing) 
       x1                                              x4   
e|-------|--------------------------------------------|
B|-------|--------------------------------------------|
G|-------|--------------------------------------------|
D|-------|--------------------------------------------|
A|--3-4--|--5-5-5-5-3—-5-5-5-5-3—-8-8-8-8-8-7—-8-8-8--|
E|-------|--------------------------------------------|
                    

Guitar 2 (Play this right after Guitar 1 has played)
 First time |Second time |Third time|Last time
e|----------|------------|----------|-------------|
B|----------|------------|----------|-------------|
G|----------|------------|----------|-------------|
D|--10-9-7--|--10101010--|--10-9-7--|--10101010---|
A|--10-9-7--|--10101010--|--10-9-7--|--10101010---|
E|--8--7-5--|--8-8-8-8---|--8--7-5--|--8-8-8-8----|

Play This fast ^^^^^^^^  And this too  ^^^^^^^^

Outro:

Guitar 1                                     x2
e|------------------------------------------|
B|------------------------------------------|
G|--7--------10--------12--------15---------|
D|--7-(x16)--10-(x16)--12-(x16)--15-(x16)---|
A|--5--------8---------10--------13---------|
E|------------------------------------------|

Guitar 2                                              x4
e|--5-(x8)--3-(x8)--1-(x16)--------------------------|
B|---------------------------------------------------|
G|---------------------------------------------------|
D|---------------------------------------------------|
A|---------------------------------------------------|
E|---------------------------------------------------|
Tap to rate this tab
 
# A B C D E F G H I J K L M N O P Q R S T U V W X Y Z