Song name
# A B C D E F G H I J K L M N O P Q R S T U V W X Y Z

Dungen - Det Tar Tid tab

Help us improve GuitareTab! Take a short survey!
e|---------------------------------------------------------------------------|
B|----------------------------------4-5-4---4--------------------------------|
G|--------------4-------4---4-6-4-6-------6---6-4-6-6s1----------------------|
D|-6-4-4-6-6-7----7-6-7---7--------------------------------------------------|
A|---------------------------------------------------------------------------|
E|---------------------------------------------------------------------------|

e|---------------------------------------------------------------------------|
B|---------------------------------------------------------------------------|
G|--------16-15-13--------------------------------11--13-14-13-11-13---------|
D|-----------------16-13-----------------------------------------------------|
A|------------------------16-14-16-16s11-14----------------------------------|
E|---------------------------------------------------------------------------|
Related for Det Tar Tid tab