Song name
# A B C D E F G H I J K L M N O P Q R S T U V W X Y Z

Dungen - Det Tar Tid chords

Highlighted       Show chord diagrams
Intro riff:
     E        E/D
-----0---------0-------------------------------------------|
-----0---------0-------------------------------------------|
-----9---------7-------------------------------------------|
-----9---------7-------------------------------------------|
-----7---------5-------------------------------------------|
-----0---------0-------------------------------------------|


---------------------------------------------------------|
-----------------------------------4-5-4---4-------------|
---------------4-------4---4-6-4-6-------6---6--4-6-6----|
---6-4-4-6-6-7---7-6-7---7----------------------------6--|
---------------------------------------------------------|
---------------------------------------------------------|

-7-6-4---------------------------------------------------|
-------7-4-----------------4---4-------------------------|
-----------6-4-6-6---4---6---6---------------------------|
-------------------6-------------------------------------|
---------------------------------------------------------|
---------------------------------------------------------|

E  E/D  C#m7  G#m7  C#m7  D#m7  Emaj7

E       E/D                      C#m7       G#m7
Blunda, sikta på den enda gången bara vi förstod
    C#m7 D#m7    Emaj7             Amaj7   Amaj7
att jojo blickar ljuger aldrig för mig, sa hon, jag vet.

        F# B C#m7 D#m7 Emaj7
Det tar tid,
                C#m7 D#m7 Emaj7 F# G#m7
särskilt det du ber mig om,
         F#  B  C#m7 D#m7 Emaj7
fast jag vill       jag med,
          C#m7 D#m7 Emaj7 F# G#m7
måste jag gå nu.

E  E/D  C#m7  G#m7  C#m7  D#m7  Emaj7

Tänker, snart så kommer ögonblicket allting hamnar på sin plats,
men jojo blickar ljuger aldrig för mig, jag vet, hon sa.

Det tar tid, särskilt det du ber mig om,
fast jag vill jag med, måste jag gå nu.
Det tar tid, särskilt det du ber mig om,
fast jag vill jag med, måste jag gå nu.

F# B C#m7 D#m7 Emaj7
C#m7 D#m7 Emaj7 F# G#m7
(6x)

Det tar tid, särskilt det du ber mig om,
fast jag vill jag med, måste jag gå nu.
Det tar tid, särskilt det du ber mig om,
fast jag vill jag med, måste jag gå nu.

F# B C#m7 D#m7 Emaj7
C#m7 D#m7 Emaj7 F# G#m7
(2x)
Tap to rate this tab
 
# A B C D E F G H I J K L M N O P Q R S T U V W X Y Z