Song name
# A B C D E F G H I J K L M N O P Q R S T U V W X Y Z

Dungen - Det Tar Tid tab

                             Dungen - Det Tar Tid
                           from their 2008 album '4'

Intro:
Fuzzed guitar:
e|--------------------------------------------------------------------------------|
B|--------------------------------------------------------------------------------|
G|--------------------------------------------------------------------------------|
D|-6-4-4-6-6-/7-7/9-7-6-7-7/9-7-9-/11-9-11-13-/14-13-11-11/13-11-9-11-9/11--\6----|
A|--------------------------------------------------------------------------------|
E|--------------------------------------------------------------------------------|

e|------------------------------------------------------------------|
B|------------------------------------------------------------------|
G|-16-p15-\13-11----------------------------------------------------|
D|---------------13-\11-9-/11-11--\6--6/9----11-13--13h14p13-11-13--|
A|------------------------------------------------------------------|
E|------------------------------------------------------------------|

Acoustic guitar:
e|-0--0--0-0-0--0--0-0--0--0--0-0-0--0--0-0--4--4--4-4-4--4--4-4--4--4--4-4-4--4--4-4--|
B|-0--0--0-0-0--0--0-0--0--0--0-0-0--0--0-0--5--5--5-5-5--5--5-5--4--4--4-4-4--4--4-4--|
G|-9--9--9-9-9--9--9-9--7--7--7-7-7--7--7-7--4--4--4-4-4--4--4-4--4--4--4-4-4--4--4-4--|
D|-9--9--9-9-9--9--9-9--7--7--7-7-7--7--7-7--6--6--6-6-6--6--6-6--4--4--4-4-4--4--4-4--|
A|-7--7--7-7-7--7--7-7--5--5--5-5-5--5--5-5--4--4--4-4-4--4--4-4--6--6--6-6-6--6--6-6--|
E|-0--0--0-0-0--0--0-0--0--0--0-0-0--0--0-0-----------------------4--4--4-4-4--4--4-4--|

e|-4-.--6-.--7--7-7-7-7-7--7--7-7-7-7-7--7--7-7-7-7-7--7--7-7-7-7-7--|
B|-5-.--7-.--9--9-9-9-9-9--9--9-9-9-9-9--9--9-9-9-9-9--9--9-9-9-9-9--|
G|-4-.--6-.--8--8-8-8-8-8--8--8-8-8-8-8--8--8-8-8-8-8--8--8-8-8-8-8--|
D|-6-.--8-.--9--9-9-9-9-9--9--9-9-9-9-9--9--9-9-9-9-9--9--9-9-9-9-9--|
A|-4-.--6-.--7--7-7-7-7-7--7--7-7-7-7-7--7--7-7-7-7-7--7--7-7-7-7-7--|
E|-------------------------------------------------------------------|


Verse:
"Blunda, sikta på den enda gången bara vi förstod"
Acoustic guitar:
e|-0--0--0-0-0--0--0-0--0--0--0-0-0--0--0-0--4--4--4-4-4--4--4-4--4--4--4-4-4--4--4-4--|
B|-0--0--0-0-0--0--0-0--0--0--0-0-0--0--0-0--5--5--5-5-5--5--5-5--4--4--4-4-4--4--4-4--|
G|-9--9--9-9-9--9--9-9--7--7--7-7-7--7--7-7--4--4--4-4-4--4--4-4--4--4--4-4-4--4--4-4--|
D|-9--9--9-9-9--9--9-9--7--7--7-7-7--7--7-7--6--6--6-6-6--6--6-6--4--4--4-4-4--4--4-4--|
A|-7--7--7-7-7--7--7-7--5--5--5-5-5--5--5-5--4--4--4-4-4--4--4-4--6--6--6-6-6--6--6-6--|
E|-0--0--0-0-0--0--0-0--0--0--0-0-0--0--0-0-----------------------4--4--4-4-4--4--4-4--|

Fuzz guitar just plays these two notes
for the first two chords in the progression:
e|------------------|
B|------------------|
G|------------------|
D|-6--------7-------|
A|------------------|
E|------------------|


Pre-chorus:
"Att jojo blickar ljuger aldrig"
Acoustic guitar:
e|-4-.--6-.--7--7-7-7-7-7--7-7-7-7-7--|
B|-5-.--7-.--9--9-9-9-9-9--9-9-9-9-9--|
G|-4-.--6-.--8--8-8-8-8-8--8-8-8-8-8--|
D|-6-.--8-.--9--9-9-9-9-9--9-9-9-9-9--|
A|-4-.--6-.--7--7-7-7-7-7--7-7-7-7-7--|
E|------------------------------------|

Fuzz guitar plays the intro lead again:
e|-----------------------------------------|
B|-----------------------------------------|
G|-16-p15-\13-11---------------------------|
D|---------------13-\11-9-/11-11--\6--6/9--|
A|-----------------------------------------|
E|-----------------------------------------|


"För mig"
Acoustic guitar:
e|-0--0--0-0-0--0--0-0-0-0--0--0--0-0-0--0--0-0-0-0--|
B|-2--2--2-2-2--2--2-2-2-2--2--2--2-2-2--2--2-2-2-2--|
G|-1--1--1-1-1--1--1-1-1-1--1--1--1-1-1--1--1-1-1-1--|
D|-2--2--2-2-2--2--2-2-2-2--2--2--2-2-2--2--2-2-2-2--|
A|-0--0--0-0-0--0--0-0-0-0--0--0--0-0-0--0--0-0-0-0--|
E|---------------------------------------------------|

Fuzz guitar:
e|-------------------|
B|-------------------|
G|-------------------|
D|-------------------|
A|-11----------------|
E|-------------------|


"Sa hon"
Acoustic guitar:
e|-0--0--0-0-0--0--0-0-0-0--0--0--0-0-0--0--0-0-0-0--|
B|-2--2--2-2-2--2--2-2-2-2--2--2--2-2-2--2--2-2-2-2--|
G|-1--1--1-1-1--1--1-1-1-1--1--1--1-1-1--1--1-1-1-1--|
D|-2--2--2-2-2--2--2-2-2-2--2--2--2-2-2--2--2-2-2-2--|
A|-1--1--1-1-1--1--1-1-1-1--1--1--1-1-1--1--1-1-1-1--|
E|---------------------------------------------------|

Fuzz guitar:
e|----------------------|
B|----------------------|
G|----13----------------|
D|----------------------|
A|----------------------|
E|-12-------------------|


"Jag vet"
Acoustic guitar:
e|-0--0--0-0-0--0--0-0-0-0--0--0--0-0-0--0--0-0-0-0--|
B|-2--2--2-2-2--2--2-2-2-2--2--2--2-2-2--2--2-2-2-2--|
G|-1--1--1-1-1--1--1-1-1-1--1--1--1-1-1--1--1-1-1-1--|
D|-2--2--2-2-2--2--2-2-2-2--2--2--2-2-2--2--2-2-2-2--|
A|-0--0--0-0-0--0--0-0-0-0--0--0--0-0-0--0--0-0-0-0--|
E|---------------------------------------------------|

Fuzz guitar:
e|----------------------|
B|----------------------|
G|----13----------------|
D|-14-------------------|
A|----------------------|
E|----------------------|


Chorus:
"Det tar tid, särskilt det du ber mig om,
Fast jag vill jag med, måste jag gå nu"
Guitar:
e|-2.----2--4.----6.----7--------4.----6--7.----2.----4--------|
B|-2.----4--5.----7.----9--------5.----7--9.----2.----4--------|
G|-3.----4--4.----6.----8--------4.----6--8.----3.----4--------| x2
D|-4.----4--6.----8.----9--------6.----8--9.----4.----4--------|
A|-4.----2--4.----6.----7--------4.----6--7.----4.----6--------|
E|-2.-------------------------------------------2.----4--------|

Fuzz guitar:
e|----------------------------------------------------9-6----------|
B|------------9----9--7-----------------------9----9-------7--9----|
G|------8--9------------6--8------------8--9-----------------------|
D|-8--9-----------------------9----8--9----------------------------|
A|-----------------------------------------------------------------|
E|-----------------------------------------------------------------|


Pre-verse instrumental - same as intro:
Fuzzed guitar:
e|--------------------------------------------------------------------------------|
B|--------------------------------------------------------------------------------|
G|--------------------------------------------------------------------------------|
D|-6-4-4-6-6-/7-7/9-7-6-7-7/9-7-9-/11-9-11-13-/14-13-11-11/13-11-9-11-9/11--\6----|
A|--------------------------------------------------------------------------------|
E|--------------------------------------------------------------------------------|

e|------------------------------------------------------------------|
B|------------------------------------------------------------------|
G|-16-p15-\13-11----------------------------------------------------|
D|---------------13-\11-9-/11-11--\6--6/9----11-13--13h14p13-11-13--|
A|------------------------------------------------------------------|
E|------------------------------------------------------------------|

Acoustic guitar:
e|-0--0--0-0-0--0--0-0--0--0--0-0-0--0--0-0--4--4--4-4-4--4--4-4--4--4--4-4-4--4--4-4--|
B|-0--0--0-0-0--0--0-0--0--0--0-0-0--0--0-0--5--5--5-5-5--5--5-5--4--4--4-4-4--4--4-4--|
G|-9--9--9-9-9--9--9-9--7--7--7-7-7--7--7-7--4--4--4-4-4--4--4-4--4--4--4-4-4--4--4-4--|
D|-9--9--9-9-9--9--9-9--7--7--7-7-7--7--7-7--6--6--6-6-6--6--6-6--4--4--4-4-4--4--4-4--|
A|-7--7--7-7-7--7--7-7--5--5--5-5-5--5--5-5--4--4--4-4-4--4--4-4--6--6--6-6-6--6--6-6--|
E|-0--0--0-0-0--0--0-0--0--0--0-0-0--0--0-0-----------------------4--4--4-4-4--4--4-4--|

e|-4-.--6-.--7--7-7-7-7-7--7--7-7-7-7-7--7--7-7-7-7-7--7--7-7-7-7-7--|
B|-5-.--7-.--9--9-9-9-9-9--9--9-9-9-9-9--9--9-9-9-9-9--9--9-9-9-9-9--|
G|-4-.--6-.--8--8-8-8-8-8--8--8-8-8-8-8--8--8-8-8-8-8--8--8-8-8-8-8--|
D|-6-.--8-.--9--9-9-9-9-9--9--9-9-9-9-9--9--9-9-9-9-9--9--9-9-9-9-9--|
A|-4-.--6-.--7--7-7-7-7-7--7--7-7-7-7-7--7--7-7-7-7-7--7--7-7-7-7-7--|
E|-------------------------------------------------------------------|


Verse:
"Tänker, snart så kommer ögonblicket allting hamnar på sin plats"
Acoustic guitar:
e|-0--0--0-0-0--0--0-0--0--0--0-0-0--0--0-0--4--4--4-4-4--4--4-4--4--4--4-4-4--4--4-4--|
B|-0--0--0-0-0--0--0-0--0--0--0-0-0--0--0-0--5--5--5-5-5--5--5-5--4--4--4-4-4--4--4-4--|
G|-9--9--9-9-9--9--9-9--7--7--7-7-7--7--7-7--4--4--4-4-4--4--4-4--4--4--4-4-4--4--4-4--|
D|-9--9--9-9-9--9--9-9--7--7--7-7-7--7--7-7--6--6--6-6-6--6--6-6--4--4--4-4-4--4--4-4--|
A|-7--7--7-7-7--7--7-7--5--5--5-5-5--5--5-5--4--4--4-4-4--4--4-4--6--6--6-6-6--6--6-6--|
E|-0--0--0-0-0--0--0-0--0--0--0-0-0--0--0-0-----------------------4--4--4-4-4--4--4-4--|


Pre-chorus:
"Men jojo blickar ljuger aldrig"
Acoustic guitar:
e|-4-.--6-.--7--7-7-7-7-7--7-7-7-7-7--|
B|-5-.--7-.--9--9-9-9-9-9--9-9-9-9-9--|
G|-4-.--6-.--8--8-8-8-8-8--8-8-8-8-8--|
D|-6-.--8-.--9--9-9-9-9-9--9-9-9-9-9--|
A|-4-.--6-.--7--7-7-7-7-7--7-7-7-7-7--|
E|------------------------------------|

Fuzz guitar plays the intro lead again:
e|-----------------------------------------|
B|-----------------------------------------|
G|-16-p15-\13-11---------------------------|
D|---------------13-\11-9-/11-11--\6--6/9--|
A|-----------------------------------------|
E|-----------------------------------------|


"För mig"
Acoustic guitar:
e|-0--0--0-0-0--0--0-0-0-0--0--0--0-0-0--0--0-0-0-0--|
B|-2--2--2-2-2--2--2-2-2-2--2--2--2-2-2--2--2-2-2-2--|
G|-1--1--1-1-1--1--1-1-1-1--1--1--1-1-1--1--1-1-1-1--|
D|-2--2--2-2-2--2--2-2-2-2--2--2--2-2-2--2--2-2-2-2--|
A|-0--0--0-0-0--0--0-0-0-0--0--0--0-0-0--0--0-0-0-0--|
E|---------------------------------------------------|

Fuzz guitar:
e|-------------------|
B|-------------------|
G|-13----------------|
D|-------------------|
A|-------------------|
E|-------------------|


"Jag vet"
Acoustic guitar:
e|-0--0--0-0-0--0--0-0-0-0--0--0--0-0-0--0--0-0-0-0--|
B|-2--2--2-2-2--2--2-2-2-2--2--2--2-2-2--2--2-2-2-2--|
G|-1--1--1-1-1--1--1-1-1-1--1--1--1-1-1--1--1-1-1-1--|
D|-2--2--2-2-2--2--2-2-2-2--2--2--2-2-2--2--2-2-2-2--|
A|-1--1--1-1-1--1--1-1-1-1--1--1--1-1-1--1--1-1-1-1--|
E|---------------------------------------------------|

Fuzz guitar:
e|----------------------|
B|----------------------|
G|----13----------------|
D|----------------------|
A|----------------------|
E|-12-------------------|


"Hon sa"
Acoustic guitar:
e|-0--0--0-0-0--0--0-0-0-0--0--0--0-0-0--0--0-0-0-0--|
B|-2--2--2-2-2--2--2-2-2-2--2--2--2-2-2--2--2-2-2-2--|
G|-1--1--1-1-1--1--1-1-1-1--1--1--1-1-1--1--1-1-1-1--|
D|-2--2--2-2-2--2--2-2-2-2--2--2--2-2-2--2--2-2-2-2--|
A|-0--0--0-0-0--0--0-0-0-0--0--0--0-0-0--0--0-0-0-0--|
E|---------------------------------------------------|

Fuzz guitar:
e|---------------------------|
B|---------------------------|
G|----13--------13p11--------|
D|-14------------------------|
A|---------------------------|
E|---------------------------|


Chorus:
"Det tar tid, särskilt det du ber mig om,
Fast jag vill jag med, måste jag gå nu,
Det tar tid, särskilt det du ber mig om,
Fast jag vill jag med, måste jag gå nu"
Guitar:
e|-2.----2--4.----6.----7--------4.----6--7.----2.----4--------|
B|-2.----4--5.----7.----9--------5.----7--9.----2.----4--------|
G|-3.----4--4.----6.----8--------4.----6--8.----3.----4--------| x4
D|-4.----4--6.----8.----9--------6.----8--9.----4.----4--------|
A|-4.----2--4.----6.----7--------4.----6--7.----4.----6--------|
E|-2.-------------------------------------------2.----4--------|

Fuzz guitar:
e|----------------------------------------------------9-6----------|
B|------------9----9--7-----------------------9----9-------7--9----|
G|------8--9------------6--8------------8--9-----------------------| x2
D|-8--9-----------------------9----8--9----------------------------|
A|-----------------------------------------------------------------|
E|-----------------------------------------------------------------|


Bridge:
Acoustic guitar:
e|-2.----2--4.----6.----7--------4.----6--7.----2.----4--------|
B|-2.----4--5.----7.----9--------5.----7--9.----2.----4--------|
G|-3.----4--4.----6.----8--------4.----6--8.----3.----4--------| x6
D|-4.----4--6.----8.----9--------6.----8--9.----4.----4--------|
A|-4.----2--4.----6.----7--------4.----6--7.----4.----6--------|
E|-2.-------------------------------------------2.----4--------|

Fuzz guitar plays this little lick at
the end of the 2nd repeat of the progression:
e|--------------------------------|
B|-9--------11p9h11p9--7-9p7------|
G|---------------------------8----|
D|--------------------------------|
A|--------------------------------|
E|--------------------------------|

And then again on the 6th repeat of the progression:
e|---------------------------------------|
B|---------------------------------------|
G|---------------------------------------|
D|-----------9/11--9---------------------|
A|-11----------------11--------11--------|
E|---------------------------------------|


Chorus:
"Det tar tid, särskilt det du ber mig om,
Fast jag vill jag med, måste jag gå nu,
Det tar tid, särskilt det du ber mig om,
Fast jag vill jag med, måste jag gå nu"
Guitar:
e|-2.----2--4.----6.----7--------4.----6--7.----2.----4--------|
B|-2.----4--5.----7.----9--------5.----7--9.----2.----4--------|
G|-3.----4--4.----6.----8--------4.----6--8.----3.----4--------| x4
D|-4.----4--6.----8.----9--------6.----8--9.----4.----4--------|
A|-4.----2--4.----6.----7--------4.----6--7.----4.----6--------|
E|-2.-------------------------------------------2.----4--------|

Fuzz guitar:
e|----------------------------------------------------9-6----------|
B|------------9----9--7-----------------------9----9-------7--9----|
G|------8--9------------6--8------------8--9-----------------------| x2
D|-8--9-----------------------9----8--9----------------------------|
A|-----------------------------------------------------------------|
E|-----------------------------------------------------------------|


Outro:
Guitar:
e|-2.----2--4.----6.----7--------4.----6--7.----2.----4--------|
B|-2.----4--5.----7.----9--------5.----7--9.----2.----4--------|
G|-3.----4--4.----6.----8--------4.----6--8.----3.----4--------| x2
D|-4.----4--6.----8.----9--------6.----8--9.----4.----4--------|
A|-4.----2--4.----6.----7--------4.----6--7.----4.----6--------|
E|-2.-------------------------------------------2.----4--------|

Fuzz guitar is louder than before:
e|----------------------------------------------------9-6----------|
B|------------9----9--7-----------------------9----9-------7--9----|
G|------8--9------------6--8------------8--9-----------------------|
D|-8--9-----------------------9----8--9----------------------------|
A|-----------------------------------------------------------------|
E|-----------------------------------------------------------------|



************************************

| /   slide up
| \   slide down
| h   hammer-on
| p   pull-off
| ~   vibrato
| +   harmonic
| x   Mute note
| .   staccato
| b   Bend
| pb  Pre-bend
| br  Bend release
| pbr Pre-bend release
| brb Bend release bend

************************************
Tap to rate this tab
# A B C D E F G H I J K L M N O P Q R S T U V W X Y Z