Song name
# A B C D E F G H I J K L M N O P Q R S T U V W X Y Z

Dungen - Ta Det Lungt tab

----------------------------------------------------------------------------
			     TA DET LUNGT - Dungen
----------------------------------------------------------------------------
Tabbed by: John
Email: imrarely@hotmail.com

Tuning: Normal

This is the part that is played on the piano in the intro. Ive tried to mark the timing 
well as i can, but as always, listen to the song.

e|--14-------10------------------------------------------------------------|
B|--------------------12------------------------------------------------10-|
G|-----------------------------12-------9----------9----7----9----12-------|
D|-------------------------------------------------------------------------|
A|-------------------------------------------------------------------------|
E|-------------------------------------------------------------------------|

e|-------------------------------------------------------------------------|
B|-10h12------10--------10-----------------------------------------------10|
G|-----------------12-------------12---9---12--------9---7---9------12-----|
D|-------------------------------------------------------------------------|
A|-------------------------------------------------------------------------|
E|-------------------------------------------------------------------------|

e|------14----10-------------------------------------------------------------|
B|------------------12----------------------------------10-------12----------|
G|------------------------12----9----7----9----12----------------------------|
D|---------------------------------------------------------------------------|
A|---------------------------------------------------------------------------|
E|---------------------------------------------------------------------------|
                         |---       not 100% sure about this bit       ------|
e|---------------------------------------------------------------------------|
B|--10h12p10---------------------------------10---12---10--------------------|
G|--------------12----9-------9--7--9--12-------------------12------9--7--9--|
D|---------------------------------------------------------------------------|
A|---------------------------------------------------------------------------|
E|---------------------------------------------------------------------------|


| /  slide up
| \  slide down
| h  hammer-on
| p  pull-off
| ~  vibrato
| +  harmonic
| x  Mute note
Tap to rate this tab
# A B C D E F G H I J K L M N O P Q R S T U V W X Y Z