Duo Trio - Pauza tab

Tabbed by: Petkovski
Standard tuning

Intro(Repeats all the time):

e|--------2-----------|
B|------3-------3-----|
G|----2-------2---2---|
D|--0-------2-------2-|
A|--------------------|
E|--------------------|

Solo(Part I):
e|--------------------------------------------------------|
B|------3h5-3---3----------3h5-3---3----------------------|
G|--2h4-------4---4-2~~~---------4---4-2---2--------------|
D|---------------------------------------4---4-2-0-2-0~---|
A|--------------------------------------------------------|
E|--------------------------------------------------------|

Solo(Part II):
e|------2-5-2-------2-5-2----------------------------|
B|--3-5-------5-3-5-------5-3-5-3------3h5-3---3-----|
G|---------------------------------2h4-------4---4-2-|
D|---------------------------------------------------|
A|---------------------------------------------------|
E|---------------------------------------------------|

e|------2-5-2-------2-5------------------------------|
B|--3-5-------5-3-5-----5-3-----3------3h5-3---3-----|
G|--------------------------2-4----2h4-------4---4-2-|
D|---------------------------------------------------|
A|---------------------------------------------------|
E|---------------------------------------------------|

Solo(Part III):
e|--2-3-------2-3-----2-3------2-3-------------------|
B|------3-5-------3-------3-5----------3h5-3---3~~~~-|
G|------------------2--------------2h4-------4-------|
D|---------------------------------------------------|
A|---------------------------------------------------|
E|---------------------------------------------------| Two Times

The second part of the song is a step higher so every note is played at the same 
place but 1 step(2 frets) higher
Also in some places there are improvisations you have to figure out them yourselves
The song ends with my favorite riff:

e|--4h7-----|
B|------4h7-|

Repeats till fade.

Enjoy! 
http://www.youtube.com/watch?v=pzthlysbM9M
Tap to rate this tab
 
# A B C D E F G H I J K L M N O P Q R S T U V W X Y Z