Song name
# A B C D E F G H I J K L M N O P Q R S T U V W X Y Z

Duran Duran - Falling Down tab

Help us improve GuitareTab! Take a short survey!
Duran Duran - Falling Down Solo (2007)

Tabbed by: trevgreg
Email: trevgreg1227@hotmail.com

Tuning: Standard


Not so much a solo as it is a lead melody, this is the guitar line that Dom Brown plays during
the choruses and outro to the bands 2007 single, Falling Down. You cant hear it as well
on the album version, but he seems to be playing the first few notes of the solo in an up-and-down
motion each time he goes through it. It just repeats itself over and over, so
around with it a bit and you should be able to get the hang of the riff by just listening
to the track its pretty simple to learn.

e|--19--19--16--16--19--19--16--16----------19--19--18--18--16--14-----------|
B|----------------------------------16--16-----------------------------------|
G|---------------------------------------------------------------------------|
D|---------------------------------------------------------------------------|
A|---------------------------------------------------------------------------|
E|---------------------------------------------------------------------------|


And just in case, here it is lower on the fretboard if youre playing this song on an
acoustic guitar.

e|--7--7--4--4--7--7--4--4--------7--7--6--6--4--2---------------------------|
B|--------------------------4--4---------------------------------------------|
G|---------------------------------------------------------------------------|
D|---------------------------------------------------------------------------|
A|---------------------------------------------------------------------------|
E|---------------------------------------------------------------------------|


| /  slide up
| \  slide down
| h  hammer-on
| p  pull-off
| ~  vibrato
| +  harmonic
| x  Mute note
Related for Falling Down tab