Song name
# A B C D E F G H I J K L M N O P Q R S T U V W X Y Z

Duran Duran - Rio tab

-------------------------------------------------------------------------------
			   Rio - Duran Duran
-------------------------------------------------------------------------------
Tabbed by:Gamerste
Email:stephen.elia@yahoo.com

Tuning:standard tuning

e|-7--8--8--8--7--8--5--8--8--8--8--8--7--8--5--8--7--8--8--8--7--8--5--8----|
B|-8--8--8--8--8--8--5--8--7--8--8--8--8--8--5--8--8--8--8--8--8--8--5--8----|
G|---------------------------------------------------------------------------|
D|---------------------------------------------------------------------------|
A|---------------------------------------------------------------------------|
E|---------------------------------------------------------------------------|

e|---------------------------------------------------------------------------|
B|--5--12-14-12-15-15-17-15--5--12-14-12-14-15-15-17-15-14--5--12-14-12-14-15|
G|---------------------------------------------------------------------------|
D|---------------------------------------------------------------------------|
A|---------------------------------------------------------------------------|
E|---------------------------------------------------------------------------|

e|---------------------------------------------------------------------------|
B|-14-12-12-13-12-----------5--12-14-12-14-15-14-12-12-13-12-----------------|
G|----------------14-14-12-----------------------------------14-14-12--------|
D|---------------------------------------------------------------------------|
A|---------------------------------------------------------------------------|
E|---------------------------------------------------------------------------|
just repeat as necessary there is another part but you can barely hear it and i don't 
it yet but when i do find it i will update it
Please rate it and comment it

************************************

| /   slide up
| \   slide down
| h   hammer-on
| p   pull-off
| ~   vibrato
| +   harmonic
| x   Mute note
| b   Bend
| pb  Pre-bend
| br  Bend release
| pbr Pre-bend release
| brb Bend release bend

************************************
Tap to rate this tab
# A B C D E F G H I J K L M N O P Q R S T U V W X Y Z