Song name
# A B C D E F G H I J K L M N O P Q R S T U V W X Y Z

Duran Duran - Michael Youve Got A Lot To Answer For tab

This is a brilliant song was dedicated to Michael Hutchence (INXS frontman), who 
was committed suicide in 1997.

Intro and verse:
E|-----------------|-----------------|-----------------|-----------------|-----------------||
B|-------3---------|---3-----------3-|---3-------3-----|-------3---------|---3-----------3-||
G|-----0-----------|-0-----0-----0---|---------0-------|-----0-----0-----|-0-----0-----0---||
D|---4-----------4-|---------2-4-----|-0-----4---------|---4---------2-4-|-----0-----4-----||
A|-2-------5-2-5---|-----2-----------|-----2-------5-2-|-5-------2-------|---------2-------||
E|-----------------|-----------------|-----------------|-----------------|-----------------||

-----------------|-----------------|-----------------|-----------------|
-----------3-----|-------3---------|---3-----------3-|-----------3-----|
---------0-----0-|-----0-----0-----|-0-----------0---|---0-----0-----0-|
-------4---------|-2-4-----0-----4-|-----------4-----|-----2-4-----0---|
-5-2-5-------2---|-------------2---|-----5-2-5-------|-2---------------|
-----------------|-----------------|-----------------|-----------------|

Chorus:
D A E G


If you have any questions, please e-mail me on: anyone_out_there@i.ua
I hope that this one will be useful for you! :)
Tap to rate this tab
# A B C D E F G H I J K L M N O P Q R S T U V W X Y Z