Song name
# A B C D E F G H I J K L M N O P Q R S T U V W X Y Z

Duran Duran - Girls On Film tab

Girls On Film

Tuning: Standard E,B,G,D,A,E

Verse:
                                                       Play 2nd part right before chorus:
E|-5-5-3--10-10-8--5-5-3--10--10-8-|-x-8-8-8-x-8-|
B|-5-5-3--10-10-8--5-5-3--10--10-8-|-x-8-8-8-x-8-|
G|---------------------------------|-------------|
D|---------------------------------|-------------|
A|---------------------------------|-------------|
E|---------------------------------|-------------|

Chorus:

E|-------------5---------------------0-----------|
B|-------------5---------------------0-----------|
G|-14-12-7-7-7-5-7-7-7-7-7-7-5-2-2-2-0-2-2-2-2-2-|
D|-14-12-7-7-7-5-7-7-7-7-7-7-5-2-2-2-0-2-2-2-2-2-|
A|-12-10-5-5-5-5-5-5-5-5-5-5-3-0-0-0-0-0-0-0-0-0-|
E|-----------------------------------------------|

Order:

(Verse)
(Chorus)
(Verse)
(Chorus)
(Bridge)/(Drum Solo)
(Small Guitar Solo using the Verse Chords both above and below the 12th fret)
(Verse)
(Chorus)

There you have it. My First Tab. Tell me what you think.
Tap to rate this tab
# A B C D E F G H I J K L M N O P Q R S T U V W X Y Z