Song name
# A B C D E F G H I J K L M N O P Q R S T U V W X Y Z

Duran Duran - Reach Up For The Sunrise tab

Duran Duran - (Reach Up For The) Sunrise (2004)

Tabbed by: trevgreg
Email: trevgreg1227@hotmail.com

Tuning: Standard

The first single to their 2004 album Astronaut, as played on guitar.


The verses pretty much revolve around certain fingerings for the C bar chord. This is repeated
a few times in each the verses, and it should come easily after listening to the song.

e|-------------------------------------------------------------------------------------------|
B|-------------------------------------------------------------------------------------------|
G|-------------------------------------------------------------------------------------------|
D|--5--5--5--5--5----5--5--5----5--5--5--5--5----5--5--5--5--5----5---5---5----5--5--5--5----|
A|--0--3--0--3--3----0--3--3----0--3--0--3--3----0--3--0--3--3----0---3---3----3--0--3--3----|
E|-------------------------------------------------------------------------------------------|


Chorus:
Four chords, two strokes each. Pretty simple. Andy Taylor usually does the F chord with only
the last five strings, but I see no problem with using the sixth string anyway.

    G         D         F         D
e|--3--3------2--2------1--1------2--2------------|
B|--3--3------3--3------1--1------3--3------------|
G|--0--0------2--2------2--2------2--2------------|
D|--0--0------0--0------3--3------0--0------------|
A|--2--2----------------3--3----------------------|
E|--3--3------------------------------------------|


Guitar Solo:
My best attempt at the solo towards the end of the song.

e|-------------------------------------------------------------------------------------|
B|-------------------------------------------------------------------------------------|
G|-------------------------------------------------------------------------------------|
D|------------3(h)----------------3(h)-------------------------------3(h)--------------|
A|--5(h)----------------5(h)-------------5--3--5--3--5-------5(h)-------------5(h)-----|
E|-------------------------------------------------------------------------------------|


Finale:
Hit D a good amount of times, and then hit F once quickly while finishing up the final chorus
in the song.
    G         D                           F
e|--3--3------2--2--2--2--2--2--2--2------1-------|
B|--3--3------3--3--3--3--3--3--3--3------2-------|
G|--0--0------2--2--3--2--2--3--2--2------2-------|
D|--0--0------0--0--0--0--0--0--0--0------3-------|
A|--2--2----------------------------------3-------|
E|--3--3------------------------------------------|


*C Chord Fingerings*
Now the time is come, the music between us
Though the night seems you - is at an end
Only change will bring you out of the darkness
In this moment everything is born again

G                      D
Reach up for the sunrise
F                      D
Put your hands into the big sky
G                      D
You can touch the sunrise
F                      D
Feel the new day enter your life

*C Chord Fingerings*
Now the fireball burns, we go round together
As the planet turns into the light
Something more than dreams to watch out for each other?
Coz we know what it means to be alive

G                      D
Reach up for the sunrise
F                      D
Put your hands into the big sky
G                      D
You can touch the sunrise
F                      D
Feel the new day enter your life

(guitar solo)

G                      D
Reach up for the sunrise
F                      D
Put your hands into the big sky
G                      D
You can touch the sunrise
F                      D
Feel the new day enter your life
Tap to rate this tab
 
# A B C D E F G H I J K L M N O P Q R S T U V W X Y Z