Song name
# A B C D E F G H I J K L M N O P Q R S T U V W X Y Z

Duran Duran - Girls On Film tab

Help us improve GuitareTab! Take a short survey!
-----------------------------------------------------------------------------
			   Girls on Film - Duran Duran
-----------------------------------------------------------------------------
Tabbed by:Josh Frazer
Email:this_is_skateboarding_@hotmail.com

Legend: x - Mute Note

Tuning:EADGBe

 Main Riff.

e|---5-5--3---xx-x---10-10--7---xx-x---5-5--3---xx-x---10--10-7------------|
B|---5-5--3---xx-x---10-10--7---xx-x---5-5--3---xx-x---10--10-7------------|
G|-------------------------------------------------------------------------|
D|-------------------------------------------------------------------------|
A|-------------------------------------------------------------------------|
E|-------------------------------------------------------------------------|

 Pre-Chorus

e|---3--555--33-5----------------------------------------------------------|
B|---3--555--33-5----------------------------------------------------------|
G|-------------------------------------------------------------------------|
D|-------------------------------------------------------------------------|
A|-------------------------------------------------------------------------|
E|-------------------------------------------------------------------------|

 Chorus

e|-------------------------------------------------------------------------|
B|-------------------------------------------------------------------------|
G|-------------------------------------------------------------------------|
D|---7----5----3-----------------------------------------------------------|
A|---5----3----1------------------------------7----5----3------------------|
E|--------------------------------------------5----3----1------------------|
Related for Girls On Film tab