Song name
# A B C D E F G H I J K L M N O P Q R S T U V W X Y Z

Dust And Blood - The Rope Acoustic tab

Dust & Blood
The Rope (Acoustic)
Tabbed by U B the band
Tuning C G C F A D

Legend
p-pull off                     h-hammer on

Intro: Acoustic (play 2 times)
D|-------0------0-----------0------0-----------0-----0---------0-----0-------|
A|----12-----12-----12---10-----10---10-p0---8-----8-----8---7-----7---7-p0--|
F|--9------9------9----9------9------------9-----9-----9---9-----9-----------|
C|---------------------------------------------------------------------------|
G|---------------------------------------------------------------------------|
C|---------------------------------------------------------------------------|

Verse 1: Acoustic (play 7 times)
D|-------0------0-----------0------0-----------0-----0---------0-----0-------|
A|----12-----12-----12---10-----10---10-p0---8-----8-----8---7-----7---7-p0--|
F|--9------9------9----9------9------------9-----9-----9---9-----9-----------|
C|---------------------------------------------------------------------------|
G|---------------------------------------------------------------------------|
C|---------------------------------------------------------------------------|

Chorus: Acoustic (play 2 times)
D|------0-----0-----------0-----0-----------0-----0-----------0-----0--------|
A|----5-----5-----5-----5-----5-----5-----5-----5-----5-----5-----5----5-p0--|
F|--4-----4-----4-----5-----5-----5-----7-----7-----7-----7-----7------------|
C|---------------------------------------------------------------------------|
G|---------------------------------------------------------------------------|
C|---------------------------------------------------------------------------|

Verse 2: Acoustic (play 7 times)
D|-------0------0-----------0------0-----------0-----0---------0-----0-------|
A|----12-----12-----12---10-----10---10-p0---8-----8-----8---7-----7---7-p0--|
F|--9------9------9----9------9------------9-----9-----9---9-----9-----------|
C|---------------------------------------------------------------------------|
G|---------------------------------------------------------------------------|
C|---------------------------------------------------------------------------|

Chorus: Acoustic (play 4 times)
D|------0-----0-----------0-----0-----------0-----0-----------0-----0--------|
A|----5-----5-----5-----5-----5-----5-----5-----5-----5-----5-----5----5-p0--|
F|--4-----4-----4-----5-----5-----5-----7-----7-----7-----7-----7------------|
C|---------------------------------------------------------------------------|
G|---------------------------------------------------------------------------|
C|---------------------------------------------------------------------------|

Bridge: Acoustic (play 4 times)
D|------7-----7-----------7-----7-----------10----10----------8-----8--------|
A|----8-----8-----8----10----10-----10----8-----8-----8----8-----8-----8-----|
F|--9-----9-----9----9-----9------9-----9-----9-----9----9-----9-----9-------|
C|---------------------------------------------------------------------------|
G|---------------------------------------------------------------------------|
C|---------------------------------------------------------------------------|

Bridge Part 2: Acoustic
D|---------------------------------------------------------------------------|
A|--8-8-8-8-8-8-8-8-7-7-7-7-7-7-7-7-10-10-10-10-10-10-10-10-8-8-8-8-8-8-8-8--|
F|--9-9-9-9-9-9-9-9-9-9-9-9-9-9-9-9-9--9--9--9--9--9--9--9--9-9-9-9-9-9-9-9--|
C|---------------------------------------------------------------------------|
G|---------------------------------------------------------------------------|
C|---------------------------------------------------------------------------|

Bridge Part 2: Acoustic
D|---------------------------------------------------------------------------|
A|--8-8-8-8-8-8-8-8-7-7-7-7-7-7-7-7-10-10-10-10-10-10-10-10-8-8-8-7-7-7-7-7--|
F|--9-9-9-9-9-9-9-9-9-9-9-9-9-9-9-9-9--9--9--9--9--9--9--9--9-9-9-9-9-9-9-9--|
C|---------------------------------------------------------------------------|
G|---------------------------------------------------------------------------|
C|---------------------------------------------------------------------------|

Chorus: Acoustic
D|------0-----0-----------0-----0-----------0-----0-----------0-----0--------|
A|----5-----5-----5-----5-----5-----5-----5-----5-----5-----5-----5----5-p0--|
F|--4-----4-----4-----5-----5-----5-----7-----7-----7-----7-----7------------|
C|---------------------------------------------------------------------------|
G|---------------------------------------------------------------------------|
C|---------------------------------------------------------------------------|

Chorus: Acoustic
D|------0-----0-----------0-----0-----------0-----------------------0--------|
A|----5-----5-----5-----5-----5-----5-----5-------5---5-----5-----5----5-p0--|
F|--4-----4-----4-----5-----5-----5-----7-----7-7---7-----7-----7------------|
C|---------------------------------------------------------------------------|
G|---------------------------------------------------------------------------|
C|---------------------------------------------------------------------------|

Chorus: Acoustic
D|------0-----0-----------0-----0-----------0-----0-----------0-----0--------|
A|----5-----5-----5-----5-----5-----5-----5-----5-----5-----5-----5----5-p0--|
F|--4-----4-----4-----5-----5-----5-----7-----7-----7-----7-----7------------|
C|---------------------------------------------------------------------------|
G|---------------------------------------------------------------------------|
C|---------------------------------------------------------------------------|

Chorus: Acoustic
D|------0-----0-----------0-----0------------0-------------------------------|
A|----5-----5-----5-----5-----5-----5------5---------------------------------|
F|--4-----4-----4-----5-----5-----5----5h7-----------------------------------|
C|---------------------------------------------------------------------------|
G|---------------------------------------------------------------------------|
C|---------------------------------------------------------------------------|

Finished!
Tap to rate this tab
 
# A B C D E F G H I J K L M N O P Q R S T U V W X Y Z