Guitaretab - guitar tabs
Song name
# A B C D E F G H I J K L M N O P Q R S T U V W X Y Z

Dust And Blood - Nothing Can Tear Us Apart tab

Dust & Blood
Nothing Can Tear Us Apart
Tabbed by U B the band
Tuning C G C F A D

Legend
b-bend

Intro:
D|----------------------------------------------------------------------------|
A|----------------------------------------------------------------------------|
F|----------------------------------------------------------------------------|
C|----------------------------------------------------------------------------|
G|----------------------------------------------------------------------------|
C|----------------------------------------------------------------------------|

Intro: Guitar 1 & 2 (Distorted)
D|----------------------------------------------------------------------------|
A|----------------------------------------------------------------------------|
F|------10-10-9-9-9-9-9-9-10-10-7-7-7-7-----10-10-9-9-9-9-9-9-10-10-7-7-7-7---|
C|------x--x--x-x-x-x-x-x-x--x--x-x-x-x-----x--x--x-x-x-x-x-x-x--x--x-x-x-x---|
G|------8--8--7-7-7-7-7-7-8--8--5-5-5-5-----8--8--7-7-7-7-7-7-8--8--5-5-5-5---|
C|--0-0---------------------------------0-0-----------------------------------|

Intro: Guitar 1 & 2 (Distorted)
D|----------------------------------------------------------------------------|
A|----------------------------------------------------------------------------|
F|------10-10-9-9-9-9-9-9-10-10-7-7-7-7-----10-10-9-9-9-9-9-9-10-10-7-7-7-7---|
C|------x--x--x-x-x-x-x-x-x--x--x-x-x-x-----x--x--x-x-x-x-x-x-x--x--x-x-x-x---|
G|------8--8--7-7-7-7-7-7-8--8--5-5-5-5-----8--8--7-7-7-7-7-7-8--8--5-5-5-5---|
C|--0-0---------------------------------0-0-----------------------------------|

Verse 1: Guitar 1
D|----------------------------------------------------------------------------|
A|----------------------------------------------------------------------------|
F|----------------------------------------------------------------------------|
C|----------------------------------------------------------------------------|
G|----------------------------------------------------------------------------|
C|----------------------------------------------------------------------------|
                                                                              |
Verse 1: Guitar 2                                                             |
D|----------------------------------------------------------------------------|
A|----------------------------------------------------------------------------|
F|----------------------------------------------------------------------------|
C|----------------------------------------------------------------------------|
G|----------------------------------------------------------------------------|
C|----------------------------------------------------------------------------|

Verse 1: Guitar 1
D|----------------------------------------------------------------------------|
A|----------------------------------------------------------------------------|
F|----------------------------------------------------------------------------|
C|----------------------------------------------------------------------------|
G|----------------------------------------------------------------------------|
C|----------------------------------------------------------------------------|
                                                                              |
Verse 1: Guitar 2 (Clean)                                                     |
D|----------------------------------------------------------------------------|
A|-----------13-----------------------------11------------------10------------|
F|-----10-----------------------------10------------------10------------------|
C|--12----12-----------------------12----12------------12----12---------------|
G|----------------------------------------------------------------------------|
C|----------------------------------------------------------------------------|

Verse 1: Guitar 1
D|----------------------------------------------------------------------------|
A|----------------------------------------------------------------------------|
F|----------------------------------------------------------------------------|
C|----------------------------------------------------------------------------|
G|----------------------------------------------------------------------------|
C|----------------------------------------------------------------------------|
                                                                              |
Verse 1: Guitar 2 (Clean)                                                     |
D|----------------------------------------------------------------------------|
A|-----------13-----------------------------11------------------10------------|
F|-----10-----------------------------10------------------10------------------|
C|--12----12-----------------------12----12------------12----12---------------|
G|----------------------------------------------------------------------------|
C|----------------------------------------------------------------------------|

Verse 1: Guitar 1 & 2 (Distorted)
D|----------------------------------------------------------------------------|
A|----------------------------------------------------------------------------|
F|------10-10-9-9-9-9-9-9-10-10-7-7-7-7-----10-10-9-9-9-9-9-9-10-10-7-7-7-7---|
C|------x--x--x-x-x-x-x-x-x--x--x-x-x-x-----x--x--x-x-x-x-x-x-x--x--x-x-x-x---|
G|------8--8--7-7-7-7-7-7-8--8--5-5-5-5-----8--8--7-7-7-7-7-7-8--8--5-5-5-5---|
C|--0-0---------------------------------0-0-----------------------------------|

Verse 1: Guitar 1
D|----------------------------------------------------------------------------|
A|----------------------------------------------------------------------------|
F|----------------------------------------------------------------------------|
C|----------------------------------------------------------------------------|
G|----------------------------------------------------------------------------|
C|----------------------------------------------------------------------------|
                                                                              |
Verse 1: Guitar 2                                                             |
D|----------------------------------------------------------------------------|
A|----------------------------------------------------------------------------|
F|----------------------------------------------------------------------------|
C|----------------------------------------------------------------------------|
G|----------------------------------------------------------------------------|
C|----------------------------------------------------------------------------|

Verse 1: Guitar 1
D|----------------------------------------------------------------------------|
A|----------------------------------------------------------------------------|
F|----------------------------------------------------------------------------|
C|----------------------------------------------------------------------------|
G|----------------------------------------------------------------------------|
C|----------------------------------------------------------------------------|
                                                                              |
Verse 1: Guitar 2 (Clean)                                                     |
D|----------------------------------------------------------------------------|
A|-----------13-----------------------------11------------------10------------|
F|-----10-----------------------------10------------------10------------------|
C|--12----12-----------------------12----12------------12----12---------------|
G|----------------------------------------------------------------------------|
C|----------------------------------------------------------------------------|
[ Tab from: http://www.guitaretab.com/d/dust-and-blood/113957.html ]
Verse 1: Guitar 1
D|----------------------------------------------------------------------------|
A|----------------------------------------------------------------------------|
F|----------------------------------------------------------------------------|
C|----------------------------------------------------------------------------|
G|----------------------------------------------------------------------------|
C|----------------------------------------------------------------------------|
                                                                              |
Verse 1: Guitar 2 (Clean)                                                     |
D|----------------------------------------------------------------------------|
A|-----------13-----------------------------11------------------10------------|
F|-----10-----------------------------10------------------10------------------|
C|--12----12-----------------------12----12------------12----12---------------|
G|----------------------------------------------------------------------------|
C|----------------------------------------------------------------------------|

Pre Chorus: Guitar 1 & 2 (Distorted)
D|----------------------------------------------------------------------------|
A|----------------------------------------------------------------------------|
F|------10-10-9-9-9-9-9-9-10-10-7-7-7-7-----10-10-9-9-9-9-9-9-10-10-7-7-7-7---|
C|------x--x--x-x-x-x-x-x-x--x--x-x-x-x-----x--x--x-x-x-x-x-x-x--x--x-x-x-x---|
G|------8--8--7-7-7-7-7-7-8--8--5-5-5-5-----8--8--7-7-7-7-7-7-8--8--5-5-5-5---|
C|--0-0---------------------------------0-0-----------------------------------|

Chorus: Guitars 1 & 2 (play 4 times) (Distorted)
D|----------------------------------------------------------------------------|
A|----------------------------------------------------------------------------|
F|-----------------------------------101010101010101-12-12-12-12-12-12-12-12--|
C|--0-0-0-0-0-0-0-0-0-0-0-0-0-0-0-0--x-x-x-x-x-x-x-x-x--x--x--x--x--x--x--x---|
G|--5-5-5-5-5-5-5-5-5-5-5-5-5-5-5-5--8-8-8-8-8-8-8-8-10-10-10-10-10-10-10-10--|
C|--0-0-0-0-0-0-0-0-0-0-0-0-0-0-0-0-------------------------------------------|

Post Chorus: Guitar 1 (Distorted)
D|----------------------------------------------------------------------------|
A|----------------------------------------------------------------------------|
F|------10-10-9-9-9-9-9-9-10-10-7-7-7-7-----10-10-9-9-9-9-9-9-10-10-7-7-7-7---|
C|------x--x--x-x-x-x-x-x-x--x--x-x-x-x-----x--x--x-x-x-x-x-x-x--x--x-x-x-x---|
G|------8--8--7-7-7-7-7-7-8--8--5-5-5-5-----8--8--7-7-7-7-7-7-8--8--5-5-5-5---|
C|--0-0---------------------------------0-0-----------------------------------|
                                                                              |
Post Chorus: Guitar 2 (Distorted)                                             |
D|----------------------------------------------------------------------------|
A|-----9-9-9-9-9-9-9-9-9-9-9-9-9-9-9-9------9-9-9-9-9-9-9-9-9-9-9-9-9-9-------|
F|----| bend 9ís 1/2 then return to 9 |----| bend 9ís 1/2 then return to 9 |--|
C|----------------------------------------------------------------------------|
G|----------------------------------------------------------------------------|
C|----------------------------------------------------------------------------|

Verse 2: Guitar 1
D|----------------------------------------------------------------------------|
A|----------------------------------------------------------------------------|
F|----------------------------------------------------------------------------|
C|----------------------------------------------------------------------------|
G|----------------------------------------------------------------------------|
C|----------------------------------------------------------------------------|
                                                                              |
Verse 2: Guitar 2                                                             |
D|----------------------------------------------------------------------------|
A|----------------------------------------------------------------------------|
F|----------------------------------------------------------------------------|
C|----------------------------------------------------------------------------|
G|----------------------------------------------------------------------------|
C|----------------------------------------------------------------------------|

Verse 2: Guitar 1
D|----------------------------------------------------------------------------|
A|----------------------------------------------------------------------------|
F|----------------------------------------------------------------------------|
C|----------------------------------------------------------------------------|
G|----------------------------------------------------------------------------|
C|----------------------------------------------------------------------------|
                                                                              |
Verse 2: Guitar 2 (Clean)                                                     |
D|----------------------------------------------------------------------------|
A|-----------13-----------------------------11------------------10------------|
F|-----10-----------------------------10------------------10------------------|
C|--12----12-----------------------12----12------------12----12---------------|
G|----------------------------------------------------------------------------|
C|----------------------------------------------------------------------------|

Verse 2: Guitar 1
D|----------------------------------------------------------------------------|
A|----------------------------------------------------------------------------|
F|----------------------------------------------------------------------------|
C|----------------------------------------------------------------------------|
G|----------------------------------------------------------------------------|
C|----------------------------------------------------------------------------|
                                                                              |
Verse 2: Guitar 2 (Clean)                                                     |
D|----------------------------------------------------------------------------|
A|-----------13-----------------------------11------------------10b-----------|
F|-----10-----------------------------10--------------------------------------|
C|--12----12-----------------------12----12-----------------------------------|
G|----------------------------------------------------------------------------|
C|----------------------------------------------------------------------------|

Chorus: Guitars 1 & 2 (play 4 times) (Distorted)
D|----------------------------------------------------------------------------|
A|----------------------------------------------------------------------------|
F|-----------------------------------101010101010101-12-12-12-12-12-12-12-12--|
C|--0-0-0-0-0-0-0-0-0-0-0-0-0-0-0-0--x-x-x-x-x-x-x-x-x--x--x--x--x--x--x--x---|
G|--5-5-5-5-5-5-5-5-5-5-5-5-5-5-5-5--8-8-8-8-8-8-8-8-10-10-10-10-10-10-10-10--|
C|--0-0-0-0-0-0-0-0-0-0-0-0-0-0-0-0-------------------------------------------|

Outro: Guitar 1 (Distorted)
D|----------------------------------------------------------------------------|
A|----------------------------------------------------------------------------|
F|------10-10-9-9-9-9-9-9-10-10-7-7-7-7---------------------------------------|
C|------x--x--x-x-x-x-x-x-x--x--x-x-x-x---------------------------------------|
G|------8--8--7-7-7-7-7-7-8--8--5-5-5-5---------------------------------------|
C|--0-0-----------------------------------------------------------------------|
                                                                              |
Outro: Guitar 2 (Distorted)                                                   |
D|----------------------------------------------------------------------------|
A|-----9-9-9-9-9-9-9-9-9-9-9-9-9-9-9-9----------------------------------------|
F|----| bend 9ís 1/2 then return to 9 |---------------------------------------|
C|----------------------------------------------------------------------------|
G|----------------------------------------------------------------------------|
C|----------------------------------------------------------------------------|

Finished!
Related for Nothing Can Tear Us Apart tab