Song name
# A B C D E F G H I J K L M N O P Q R S T U V W X Y Z

Dust And Blood - Sing To Your Demons tab

Dust & Blood
Sing To Your Demons
Tabbed by U B the band
Tuning C G C F A D

Legend
h-hammer on                      /-slide up

Intro: Guitar 1 (Distorted) Play Intro 2 Times
D|----------------------------------------------------------------------------|
A|----------------------------------------------------------------------------|
F|----------------------------------------------------------------------------|
C|----------------------------------------------------------------------------|
G|----------------------------------------------------------------------------|
C|--0-0-0-0-0-0-0-0--8h10-0--7h8-0--5h7--0-0-0-0-0-0-0-0--8h10-0--7h8-0--5h7--|
                                                                              |
Intro: Guitar 2 (Distorted)                                                   |
D|----------------------------------------------------------------------------|
A|----------------------------------------------------------------------------|
F|----------------------------------------------------------------------------|
C|--0-0-0-0-0-0-0-0--0--0-0--0-0-0--0-0--0-0-0-0-0-0-0-0--0--0-0--0-0-0--0-0--|
G|--5-5-5-5-5-5-5-5--5--5-5--5-5-5--5-5--5-5-5-5-5-5-5-5--5--5-5--5-5-5--5-5--|
C|--0-0-0-0-0-0-0-0--0--0-0--0-0-0--0-0--0-0-0-0-0-0-0-0--0--0-0--0-0-0--0-0--|

Verse 1: Guitar 1 (Distorted & Palm Muted) Play Verse 4 Times
D|----------------------------------------------------------------------------|
A|----------------------------------------------------------------------------|
F|----------------------------------------------------------------------------|
C|----------------------------------------------------------------------------|
G|--8-8-8-8-8-8-8-8-8-8-8-8-8-8-8-8--7-7-7-7-7-7-7-7-7-7-7-7-7-7-7-7----------|
C|--8-8-8-8-8-8-8-8-8-8-8-8-8-8-8-8--7-7-7-7-7-7-7-7-7-7-7-7-7-7-7-7----------|
                                                                              |
Verse 1: Guitar 2 (Distorted & Palm Muted)                                    |
D|----------------------------------------------------------------------------|
A|----------------------------------------------------------------------------|
F|--7-7-7-7-7-7-7-7-7-7-7-7-7-7-7-7-------------------------------------------|
C|--0-0-0-0-0-0-0-0-0-0-0-0-0-0-0-0-------------------------------------------|
G|--8-8-8-8-8-8-8-8-8-8-8-8-8-8-8-8--7-7-7-7-7-7-7-7-7-7-7-7-7-7-7-7----------|
C|-----------------------------------7-7-7-7-7-7-7-7-7-7-7-7-7-7-7-7----------|

Chorus: Guitar 1 (Distorted) Play Chorus 2 Times
D|----------------------------------------------------------------------------|
A|----------------------------------------------------------------------------|
F|----------------------------------------------------------------------------|
C|--0-0-0-0-0-0-0-0-0-0-0-0-0-0-0-0--5-5-5-5-5-5-5-5-5-5-5-5-5-5-5-5----------|
G|--0-0-0-0-0-0-0-0-0-0-0-0-0-0-0-0--5-5-5-5-5-5-5-5-5-5-5-5-5-5-5-5----------|
C|--0-0-0-0-0-0-0-0-0-0-0-0-0-0-0-0--5-5-5-5-5-5-5-5-5-5-5-5-5-5-5-5----------|
                                                                              |
Chorus: Guitar 2 (Distorted)                                                  |
D|----------------------------------------------------------------------------|
A|----------------------------------------------------------------------------|
F|--14141414141414141414141212121212/17171717171515151515151515151515---------|
C|---x-x-x-x-x-x-x-x-x-x-x-x-x-x-x-x--x-x-x-x-x-x-x-x-x-x-x-x-x-x-x-x---------|
G|--12121212121212121212121010101010/15151515151313131313131313131313---------|
C|----------------------------------------------------------------------------|

Chorus: Guitar 1 (Distorted)
D|----------------------------------------------------------------------------|
A|----------------------------------------------------------------------------|
F|----------------------------------------------------------------------------|
C|--0-0-0-0-0-0-0-0-0-0-0-0-0-0-0-0--5-5-5-5-5-5-5-5--8-8-8-8--7-7-7----------|
G|--0-0-0-0-0-0-0-0-0-0-0-0-0-0-0-0--5-5-5-5-5-5-5-5--8-8-8-8--7-7-7----------|
C|--0-0-0-0-0-0-0-0-0-0-0-0-0-0-0-0--5-5-5-5-5-5-5-5--8-8-8-8--7-7-7----------|
                                                                              |
Chorus: Guitar 2 (Distorted)                                                  |
D|----------------------------------------------------------------------------|
A|----------------------------------------------------------------------------|
F|--14141414141414141414141212121212/17171717171515151515151515151515---------|
C|---x-x-x-x-x-x-x-x-x-x-x-x-x-x-x-x--x-x-x-x-x-x-x-x-x-x-x-x-x-x-x-x---------|
G|--12121212121212121212121010101010/15151515151313131313131313131313---------|
C|----------------------------------------------------------------------------|

Post Chorus: Guitar 1 (Distorted)
D|----------------------------------------------------------------------------|
A|----------------------------------------------------------------------------|
F|----------------------------------------------------------------------------|
C|----------------------------------------------------------------------------|
G|----------------------------------------------------------------------------|
C|--0-0-0-0-0-0-0-0--8h10-0--7h8-0--5h7--0-0-0-0-0-0-0-0--8h10-0--7h8-0--5h7--|
                                                                              |
Post Chorus: Guitar 2 (Distorted)                                             |
D|----------------------------------------------------------------------------|
A|----------------------------------------------------------------------------|
F|--14------------------------------------------------------------------------|
C|---x------------------------------------------------------------------------|
G|--12------------------------------------------------------------------------|
C|----------------------------------------------------------------------------|

Verse 2: Guitar 1 (Distorted & Palm Muted) Play Verse 4 Times
D|----------------------------------------------------------------------------|
A|----------------------------------------------------------------------------|
F|----------------------------------------------------------------------------|
C|----------------------------------------------------------------------------|
G|--8-8-8-8-8-8-8-8-8-8-8-8-8-8-8-8--7-7-7-7-7-7-7-7-7-7-7-7-7-7-7-7----------|
C|--8-8-8-8-8-8-8-8-8-8-8-8-8-8-8-8--7-7-7-7-7-7-7-7-7-7-7-7-7-7-7-7----------|
                                                                              |
Verse 2: Guitar 2 (Distorted & Palm Muted)                                    |
D|----------------------------------------------------------------------------|
A|----------------------------------------------------------------------------|
F|--7-7-7-7-7-7-7-7-7-7-7-7-7-7-7-7-------------------------------------------|
C|--0-0-0-0-0-0-0-0-0-0-0-0-0-0-0-0-------------------------------------------|
G|--8-8-8-8-8-8-8-8-8-8-8-8-8-8-8-8--7-7-7-7-7-7-7-7-7-7-7-7-7-7-7-7----------|
C|-----------------------------------7-7-7-7-7-7-7-7-7-7-7-7-7-7-7-7----------|

Chorus: Guitar 1 (Distorted) Play Chorus 2 Times
D|----------------------------------------------------------------------------|
A|----------------------------------------------------------------------------|
F|----------------------------------------------------------------------------|
C|--0-0-0-0-0-0-0-0-0-0-0-0-0-0-0-0--5-5-5-5-5-5-5-5-5-5-5-5-5-5-5-5----------|
G|--0-0-0-0-0-0-0-0-0-0-0-0-0-0-0-0--5-5-5-5-5-5-5-5-5-5-5-5-5-5-5-5----------|
C|--0-0-0-0-0-0-0-0-0-0-0-0-0-0-0-0--5-5-5-5-5-5-5-5-5-5-5-5-5-5-5-5----------|
                                                                              |
Chorus: Guitar 2 (Distorted)                                                  |
D|----------------------------------------------------------------------------|
A|----------------------------------------------------------------------------|
F|--14141414141414141414141212121212/17171717171515151515151515151515---------|
C|---x-x-x-x-x-x-x-x-x-x-x-x-x-x-x-x--x-x-x-x-x-x-x-x-x-x-x-x-x-x-x-x---------|
G|--12121212121212121212121010101010/15151515151313131313131313131313---------|
C|----------------------------------------------------------------------------|

Chorus: Guitar 1 (Distorted)
D|----------------------------------------------------------------------------|
A|----------------------------------------------------------------------------|
F|----------------------------------------------------------------------------|
C|--0-0-0-0-0-0-0-0-0-0-0-0-0-0-0-0--5-5-5-5-5-5-5-5--8-8-8-8--7-7-7----------|
G|--0-0-0-0-0-0-0-0-0-0-0-0-0-0-0-0--5-5-5-5-5-5-5-5--8-8-8-8--7-7-7----------|
C|--0-0-0-0-0-0-0-0-0-0-0-0-0-0-0-0--5-5-5-5-5-5-5-5--8-8-8-8--7-7-7----------|
                                                                              |
Chorus: Guitar 2 (Distorted)                                                  |
D|----------------------------------------------------------------------------|
A|----------------------------------------------------------------------------|
F|--14141414141414141414141212121212/17171717171515151515151515151515---------|
C|---x-x-x-x-x-x-x-x-x-x-x-x-x-x-x-x--x-x-x-x-x-x-x-x-x-x-x-x-x-x-x-x---------|
G|--12121212121212121212121010101010/15151515151313131313131313131313---------|
C|----------------------------------------------------------------------------|

Post Chorus: Guitar 1 (Distorted)
D|----------------------------------------------------------------------------|
A|----------------------------------------------------------------------------|
F|----------------------------------------------------------------------------|
C|----------------------------------------------------------------------------|
G|----------------------------------------------------------------------------|
C|--0-0-0-0-0-0-0-0--8h10-0--7h8-0--5h7---------------------------------------|
                                                                              |
Post Chorus: Guitar 2 (Distorted)                                             |
D|----------------------------------------------------------------------------|
A|----------------------------------------------------------------------------|
F|--14------------------------------------------------------------------------|
C|---x------------------------------------------------------------------------|
G|--12------------------------------------------------------------------------|
C|----------------------------------------------------------------------------|

Bridge: Guitars 1 & 2 (Distorted) Play 3 Times
D|----------------------------------------------------------------------------|
A|----------------------------------------------------------------------------|
F|----------------------------------------------------------------------------|
C|--5-5-5-5-5-5-5-5-8-8-8-8-7-7-7-7-0-0-0-0-0-0-0-0-0-0-0-0-0-0-0-0-----------|
G|--5-5-5-5-5-5-5-5-8-8-8-8-7-7-7-7-0-0-0-0-0-0-0-0-0-0-0-0-0-0-0-0-----------|
C|--5-5-5-5-5-5-5-5-8-8-8-8-7-7-7-7-0-0-0-0-0-0-0-0-0-0-0-0-0-0-0-0-----------|

Bridge 2: Guitars 1 & 2 (Distorted)
D|----------------------------------------------------------------------------|
A|----------------------------------------------------------------------------|
F|----------------------------------------------------------------------------|
C|----------------------------------------------------------------------------|
G|----------------------------------------------------------------------------|
C|--5-5-5-5-5-5-5-5-5-5-5-5-3-3-3-3-7-7-7-7-7-7-7-7-7-7-7-7-------------------|

Bridge 2: Guitars 1 & 2 (Distorted)
D|----------------------------------------------------------------------------|
A|----------------------------------------------------------------------------|
F|----------------------------------------------------------------------------|
C|----------------------------------------------------------------------------|
G|----------------------------------------------------------------------------|
C|--5-5-5-5-8-8-8-8-8-8-8-8-10-10-10-10-10-10-10-10---------------------------|

Chorus: Guitar 1 (Distorted) Play Chorus 2 Times
D|----------------------------------------------------------------------------|
A|----------------------------------------------------------------------------|
F|----------------------------------------------------------------------------|
C|--0-0-0-0-0-0-0-0-0-0-0-0-0-0-0-0--5-5-5-5-5-5-5-5-5-5-5-5-5-5-5-5----------|
G|--0-0-0-0-0-0-0-0-0-0-0-0-0-0-0-0--5-5-5-5-5-5-5-5-5-5-5-5-5-5-5-5----------|
C|--0-0-0-0-0-0-0-0-0-0-0-0-0-0-0-0--5-5-5-5-5-5-5-5-5-5-5-5-5-5-5-5----------|
                                                                              |
Chorus: Guitar 2 (Distorted)                                                  |
D|----------------------------------------------------------------------------|
A|----------------------------------------------------------------------------|
F|--14141414141414141414141212121212/17171717171515151515151515151515---------|
C|---x-x-x-x-x-x-x-x-x-x-x-x-x-x-x-x--x-x-x-x-x-x-x-x-x-x-x-x-x-x-x-x---------|
G|--12121212121212121212121010101010/15151515151313131313131313131313---------|
C|----------------------------------------------------------------------------|

Chorus: Guitar 1 (Distorted)
D|----------------------------------------------------------------------------|
A|----------------------------------------------------------------------------|
F|----------------------------------------------------------------------------|
C|--0-0-0-0-0-0-0-0-0-0-0-0-0-0-0-0--5-5-5-5-5-5-5-5--8-8-8-8--7-7-7----------|
G|--0-0-0-0-0-0-0-0-0-0-0-0-0-0-0-0--5-5-5-5-5-5-5-5--8-8-8-8--7-7-7----------|
C|--0-0-0-0-0-0-0-0-0-0-0-0-0-0-0-0--5-5-5-5-5-5-5-5--8-8-8-8--7-7-7----------|
                                                                              |
Chorus: Guitar 2 (Distorted)                                                  |
D|----------------------------------------------------------------------------|
A|----------------------------------------------------------------------------|
F|--14141414141414141414141212121212/17171717171515151515151515151515---------|
C|---x-x-x-x-x-x-x-x-x-x-x-x-x-x-x-x--x-x-x-x-x-x-x-x-x-x-x-x-x-x-x-x---------|
G|--12121212121212121212121010101010/15151515151313131313131313131313---------|
C|----------------------------------------------------------------------------|

Outro: Guitar 1 (Distorted) Play Intro 2 Times
D|----------------------------------------------------------------------------|
A|----------------------------------------------------------------------------|
F|----------------------------------------------------------------------------|
C|----------------------------------------------------------------------------|
G|----------------------------------------------------------------------------|
C|--0-0-0-0-0-0-0-0--8h10-0--7h8-0--5h7--0-0-0-0-0-0-0-0--8h10-0--7h8-0--5h7--|
                                                                              |
Outro: Guitar 2 (Distorted)                                                   |
D|----------------------------------------------------------------------------|
A|----------------------------------------------------------------------------|
F|----------------------------------------------------------------------------|
C|--0-0-0-0-0-0-0-0--0--0-0--0-0-0--0-0--0-0-0-0-0-0-0-0--0--0-0--0-0-0--0-0--|
G|--5-5-5-5-5-5-5-5--5--5-5--5-5-5--5-5--5-5-5-5-5-5-5-5--5--5-5--5-5-5--5-5--|
C|--0-0-0-0-0-0-0-0--0--0-0--0-0-0--0-0--0-0-0-0-0-0-0-0--0--0-0--0-0-0--0-0--|

End: Guitar 1 & 2 (Distorted)
D|----------------------------------------------------------------------------|
A|----------------------------------------------------------------------------|
F|----------------------------------------------------------------------------|
C|----------------------------------------------------------------------------|
G|--0-------------------------------------------------------------------------|
C|--0-------------------------------------------------------------------------|

Finished!
Tap to rate this tab
# A B C D E F G H I J K L M N O P Q R S T U V W X Y Z