Song name
# A B C D E F G H I J K L M N O P Q R S T U V W X Y Z

Dust And Blood - Anchorless And Vain tab

Dust & Blood
Anchorless and Vain
Tabbed by U B the band
Tuning C G C F A D

Legend
p-pull off                   ()-optional

Intro: Guitar 1 (Low Distortion) PLAY 2 TIMES
D|--------0--0-0-0---------0--0-0-0---------0--0-0-0------------------|
A|--1---1-1--1-1-1---1---1-1--1-1-1---1---1-1--1-1-1------------0-0-0-|
F|--2---2-2--2-2-2---2---2-2--2-2-2---0---0-0--0-0-0-------4-4--4-4-4-|
C|--2---2-2--2-2-2---2---2-2--2-2-2---2---2-2--2-2-2p0-2---2-2--2-2-2-|
G|--0---0-0--0-0-0---0---0-0--0-0-0---3---3-3--3-3-3p0-2---2-2--2-2-2-|
C|-----------------------------------------------------2---2-2--2-2-2-|

Verse 1: Guitar 1 (Low Distortion) PLAY 4 TIMES
D|--------0--0-0-0---------0--0-0-0---------0--0-0-0------------------|
A|--1---1-1--1-1-1---1---1-1--1-1-1---1---1-1--1-1-1------------0-0-0-|
F|--2---2-2--2-2-2---2---2-2--2-2-2---0---0-0--0-0-0-------4-4--4-4-4-|
C|--2---2-2--2-2-2---2---2-2--2-2-2---2---2-2--2-2-2p0-2---2-2--2-2-2-|
G|--0---0-0--0-0-0---0---0-0--0-0-0---3---3-3--3-3-3p0-2---2-2--2-2-2-|
C|-----------------------------------------------------2---2-2--2-2-2-|

Chorus: Guitar 1 (Low Distortion) PLAY 2 TIMES
D|--------------------------------------------0-0-0------------0-0-0--|
A|------------------------------------1----1--1-1-1----1----1--1-1-1--|
F|--5----5--5-5-5----5----5--5-5-5----2----2--2-2-2----2----2--2-2-2--|
C|--3----3--3-3-3----3----3--3-3-3----2----2--2-2-2----2----2--2-2-2--|
G|--3----3--3-3-3----3----3--3-3-3----0----0--0-0-0----0----0--0-0-0--|
C|--3----3--3-3-3----3----3--3-3-3------------------------------------|

Chorus Cont.: Guitar 1 (Low Distortion) PLAY 1 TIME
D|--------------------------------------------------------------------|
A|------------------------------------0-------------------------------|
F|------------------------------------4-------------------------------|
C|--2---------------------------------2-------------------------------|
G|--2---------------------------------2-------------------------------|
C|--2---------------------------------2-------------------------------|

Post Chorus: Guitar 1 (Low Distortion) PLAY 2 TIMES
D|--------0--0-0-0---------0--0-0-0---------0--0-0-0------------------|
A|--1---1-1--1-1-1---1---1-1--1-1-1---1---1-1--1-1-1------------0-0-0-|
F|--2---2-2--2-2-2---2---2-2--2-2-2---0---0-0--0-0-0-------4-4--4-4-4-|
C|--2---2-2--2-2-2---2---2-2--2-2-2---2---2-2--2-2-2p0-2---2-2--2-2-2-|
G|--0---0-0--0-0-0---0---0-0--0-0-0---3---3-3--3-3-3p0-2---2-2--2-2-2-|
C|-----------------------------------------------------2---2-2--2-2-2-|
                                                                      |
Post Chorus: Piano PLAY 2 TIMES                                       |
D|--15----------------------------------------------------------------|
A|------17------------------------------------------------------------|
F|-----------------------17-----------16--17--------14----------------|
C|--------------------------------------------------------------------|
G|--------------------------------------------------------------------|
C|--------------------------------------------------------------------|

Verse 2: Guitar 1 (Low Distortion) PLAY 4 TIMES
D|--------0--0-0-0---------0--0-0-0---------0--0-0-0------------------|
A|--1---1-1--1-1-1---1---1-1--1-1-1---1---1-1--1-1-1------------0-0-0-|
F|--2---2-2--2-2-2---2---2-2--2-2-2---0---0-0--0-0-0-------4-4--4-4-4-|
C|--2---2-2--2-2-2---2---2-2--2-2-2---2---2-2--2-2-2p0-2---2-2--2-2-2-|
G|--0---0-0--0-0-0---0---0-0--0-0-0---3---3-3--3-3-3p0-2---2-2--2-2-2-|
C|-----------------------------------------------------2---2-2--2-2-2-|

Chorus: Guitar 1 (Low Distortion) PLAY 2 TIMES
D|--------------------------------------------0-0-0------------0-0-0--|
A|------------------------------------1----1--1-1-1----1----1--1-1-1--|
F|--5----5--5-5-5----5----5--5-5-5----2----2--2-2-2----2----2--2-2-2--|
C|--3----3--3-3-3----3----3--3-3-3----2----2--2-2-2----2----2--2-2-2--|
G|--3----3--3-3-3----3----3--3-3-3----0----0--0-0-0----0----0--0-0-0--|
C|--3----3--3-3-3----3----3--3-3-3------------------------------------|
                                                                      |
Chorus: Piano PLAY 2 TIMES                                            |
D|--------------------------------------------------------------------|
A|-------20--------------------------------20-------------------------|
F|--17--------------------------------17------------------------------|
C|--------------------------------------------------------------------|
G|--------------------------------------------------------------------|
C|--------------------------------------------------------------------|

Chorus Cont.: Guitar 1 (Low Distortion) PLAY 1 TIME
D|--------------------------------------------------------------------|
A|--0---------------------------------0-------------------------------|
F|--4---------------------------------4-------------------------------|
C|--2---------------------------------2-------------------------------|
G|--2---------------------------------2-------------------------------|
C|--2---------------------------------2-------------------------------|

Bridge: Guitar 1 (Low Distortion) PLAY ENTIRE BRIDGE 2 TIMES
D|-------0--0-0-0---------0--0-0-0------------------------------------|
A|--1----1--1-1-1----1----1--1-1-1------------------------------------|
F|--2----2--2-2-2----2----2--2-2-2---------4--4-4-4----4----4--4-4-4--|
C|--2----2--2-2-2----2----2--2-2-2----2----2--2-2-2----2----2--2-2-2--|
G|--0----0--0-0-0----0----0--0-0-0----2----2--2-2-2----2----2--2-2-2--|
C|------------------------------------2----2--2-2-2----2----2--2-2-2--|
                                                                      |
Bridge: Piano                                                         |
D|--17---15---------------------------17---15-------------------------|
A|--------------------------------------------------------------------|
F|-------------17--------------------------------17-------------------|
C|--------------------------------------------------------------------|
G|--------------------------------------------------------------------|
C|--------------------------------------------------------------------|

Bridge: Guitar 1 (Low Distortion)
D|-----------------------------------------0--0-0-0---------0--0-0-0--|
A|------------------------------------1----1--1-1-1----1----1--1-1-1--|
F|--5----5--5-5-5----7----7--7-7-7----2----2--2-2-2----2----2--2-2-2--|
C|--3----3--3-3-3----5----5--5-5-5----2----2--2-2-2----2----2--2-2-2--|
G|--3----3--3-3-3----5----5--5-5-5----0----0--0-0-0----0----0--0-0-0--|
C|--3----3--3-3-3----5----5--5-5-5------------------------------------|
                                                                      |
Bridge: Piano                                                         |
D|------------------------------------17---15-------------------------|
A|-------------------15-----------------------------------------------|
F|-(17)------------------------------------------17-------------------|
C|--------------------------------------------------------------------|
G|--------------------------------------------------------------------|
C|--------------------------------------------------------------------|

Bridge: Guitar 1 (Low Distortion)
D|--------------------------------------------------------------------|
A|--------------------------------------------------------------------|
F|-------4--4-4-4----4----4--4-4-4----5----5--5-5-5----7----7--7-7-7--|
C|--2----2--2-2-2----2----2--2-2-2----3----3--3-3-3----5----5--5-5-5--|
G|--2----2--2-2-2----2----2--2-2-2----3----3--3-3-3----5----5--5-5-5--|
C|--2----2--2-2-2----2----2--2-2-2----3----3--3-3-3----5----5--5-5-5--|
                                                                      |
Bridge: Piano                                                         |
D|--17---15-----------------------------------------------------------|
A|-----------------------------------------------------15-------------|
F|-------------17--------------------(17)-----------------------------|
C|--------------------------------------------------------------------|
G|--------------------------------------------------------------------|
C|--------------------------------------------------------------------|

Outro: Guitar 1 (Low Distortion)
D|--------------------------------------------------------------------|
A|--1-----------------------------------------------------------------|
F|--2-----------------------------------------------------------------|
C|--2-----------------------------------------------------------------|
G|--0-----------------------------------------------------------------|
C|--------------------------------------------------------------------|
                                                                      |
Outro: Piano                                                          |
D|--------------------------------------------------------------------|
A|--17----------------------------------------------------------------|
F|--------------------------------------------------------------------|
C|--------------------------------------------------------------------|
G|--------------------------------------------------------------------|
C|--------------------------------------------------------------------|

Finished!
Tap to rate this tab
 
# A B C D E F G H I J K L M N O P Q R S T U V W X Y Z