Song name
# A B C D E F G H I J K L M N O P Q R S T U V W X Y Z

Dust And Blood - Sing To Your Demons Acoustic tab

Dust & Blood
Sing To Your Demons (Acoustic)
Tabbed by U B the band
Tuning C G C F A D

Legend
h-hammer on                      /-slide up

Intro: Guitars 1 & 2 (Acoustic)
D|----------------------------------------------------------------------------|
A|--10--------8--------------------------------------10----8------------------|
F|-----------------10------9----7-------9----10------------------10----9------|
C|----------------------------------------------------------------------------|
G|----------------------------------------------------------------------------|
C|----------------------------------------------------------------------------|

Intro: Guitars 1 & 2 (Acoustic) Play Intro 2 Times
D|----------------------------------------------------------------------------|
A|----------------------------------------------------------------------------|
F|----------------------------------------------------------------------------|
C|----------------------------------------------------------------------------|
G|----------------------------------------------------------------------------|
C|--0-0-0-0-0-0-0-0--8h10-0--7h8-0--5h7--0-0-0-0-0-0-0-0--8h10-0--7h8-0--5h7--|

Verse 1: Guitars 1 & 2 (Acoustic & Palm Muted) Play Verse 4 Times
D|----------------------------------------------------------------------------|
A|----------------------------------------------------------------------------|
F|----------------------------------------------------------------------------|
C|----------------------------------------------------------------------------|
G|--8-8-8-8-8-8-8-8-8-8-8-8-8-8-8-8--7-7-7-7-7-7-7-7-7-7-7-7-7-7-7-7----------|
C|--8-8-8-8-8-8-8-8-8-8-8-8-8-8-8-8--7-7-7-7-7-7-7-7-7-7-7-7-7-7-7-7----------|

Chorus: Guitars 1 & 2 (Acoustic) Play Chorus 2 Times
D|----------------------------------------------------------------------------|
A|----------------------------------------------------------------------------|
F|--7-7-7-7-7-7-7-7-7-7-7-7-7-7-7-7--7-7-7-7-7-7-7-7-7-7-7-7-7-7-7-7----------|
C|--0-0-0-0-0-0-0-0-0-0-0-0-0-0-0-0--5-5-5-5-5-5-5-5-5-5-5-5-5-5-5-5----------|
G|--0-0-0-0-0-0-0-0-0-0-0-0-0-0-0-0--5-5-5-5-5-5-5-5-5-5-5-5-5-5-5-5----------|
C|--0-0-0-0-0-0-0-0-0-0-0-0-0-0-0-0--5-5-5-5-5-5-5-5-5-5-5-5-5-5-5-5----------|

Chorus: Guitars 1 & 2 (Acoustic)
D|----------------------------------------------------------------------------|
A|----------------------------------------------------------------------------|
F|--7-7-7-7-7-7-7-7-7-7-7-7-7-7-7-7--7-7-7-7-7-7-7-7--10101010-9-9-9----------|
C|--0-0-0-0-0-0-0-0-0-0-0-0-0-0-0-0--5-5-5-5-5-5-5-5--8-8-8-8--7-7-7----------|
G|--0-0-0-0-0-0-0-0-0-0-0-0-0-0-0-0--5-5-5-5-5-5-5-5--8-8-8-8--7-7-7----------|
C|--0-0-0-0-0-0-0-0-0-0-0-0-0-0-0-0--5-5-5-5-5-5-5-5--8-8-8-8--7-7-7----------|

Post Chorus: Guitars 1 & 2 (Acoustic)
D|----------------------------------------------------------------------------|
A|----------------------------------------------------------------------------|
F|----------------------------------------------------------------------------|
C|----------------------------------------------------------------------------|
G|----------------------------------------------------------------------------|
C|--0-0-0-0-0-0-0-0--8h10-0--7h8-0--5h7--0-0-0-0-0-0-0-0--8h10-0--7h8-0--5h7--|

Verse 2: Guitars 1 & 2 (Acoustic & Palm Muted) Play Verse 4 Times
D|----------------------------------------------------------------------------|
A|----------------------------------------------------------------------------|
F|----------------------------------------------------------------------------|
C|----------------------------------------------------------------------------|
G|--8-8-8-8-8-8-8-8-8-8-8-8-8-8-8-8--7-7-7-7-7-7-7-7-7-7-7-7-7-7-7-7----------|
C|--8-8-8-8-8-8-8-8-8-8-8-8-8-8-8-8--7-7-7-7-7-7-7-7-7-7-7-7-7-7-7-7----------|

Chorus: Guitars 1 & 2 (Acoustic) Play Chorus 2 Times
D|----------------------------------------------------------------------------|
A|----------------------------------------------------------------------------|
F|--7-7-7-7-7-7-7-7-7-7-7-7-7-7-7-7--7-7-7-7-7-7-7-7-7-7-7-7-7-7-7-7----------|
C|--0-0-0-0-0-0-0-0-0-0-0-0-0-0-0-0--5-5-5-5-5-5-5-5-5-5-5-5-5-5-5-5----------|
G|--0-0-0-0-0-0-0-0-0-0-0-0-0-0-0-0--5-5-5-5-5-5-5-5-5-5-5-5-5-5-5-5----------|
C|--0-0-0-0-0-0-0-0-0-0-0-0-0-0-0-0--5-5-5-5-5-5-5-5-5-5-5-5-5-5-5-5----------|

Chorus: Guitars 1 & 2 (Acoustic)
D|----------------------------------------------------------------------------|
A|----------------------------------------------------------------------------|
F|--7-7-7-7-7-7-7-7-7-7-7-7-7-7-7-7--7-7-7-7-7-7-7-7--10101010-9-9-9----------|
C|--0-0-0-0-0-0-0-0-0-0-0-0-0-0-0-0--5-5-5-5-5-5-5-5--8-8-8-8--7-7-7----------|
G|--0-0-0-0-0-0-0-0-0-0-0-0-0-0-0-0--5-5-5-5-5-5-5-5--8-8-8-8--7-7-7----------|
C|--0-0-0-0-0-0-0-0-0-0-0-0-0-0-0-0--5-5-5-5-5-5-5-5--8-8-8-8--7-7-7----------|

Post Chorus: Guitars 1 & 2 (Acoustic) PLAY 2 TIMES
D|----------------------------------------------------------------------------|
A|----------------------------------------------------------------------------|
F|----------------------------------------------------------------------------|
C|----------------------------------------------------------------------------|
G|----------------------------------------------------------------------------|
C|--0-0-0-0-0-0-0-0--8h10-0--7h8-0--5h7--0-0-0-0-0-0-0-0--8h10-0--7h8-0--5h7--|

Bridge: Guitars 1 & 2 (Acoustic) Play 3 Times
D|----------------------------------------------------------------------------|
A|----------------------------------------------------------------------------|
F|--7-7-7-7-7-7-7-7-10101010-9-9-9-9-7-7-7-7-7-7-7-7--------------------------|
C|--5-5-5-5-5-5-5-5-8-8-8-8--7-7-7-7-0-0-0-0-0-0-0-0-8h10-0--7h8-0--5h7-------|
G|--5-5-5-5-5-5-5-5-8-8-8-8--7-7-7-7-0-0-0-0-0-0-0-0-8h10-0--7h8-0--5h7-------|
C|--5-5-5-5-5-5-5-5-8-8-8-8--7-7-7-7-0-0-0-0-0-0-0-0-8h10-0--7h8-0--5h7-------|

Bridge 2: Guitars 1 & 2 (Acoustic)
D|----------------------------------------------------------------------------|
A|----------------------------------------------------------------------------|
F|--7-7-7-7-7-7-7-7-7-7-7-7-5-5-5-5-9-9-9-9-9-9-9-9-9-9-9-9-------------------|
C|--5-5-5-5-5-5-5-5-5-5-5-5-3-3-3-3-7-7-7-7-7-7-7-7-7-7-7-7-------------------|
G|--5-5-5-5-5-5-5-5-5-5-5-5-3-3-3-3-7-7-7-7-7-7-7-7-7-7-7-7-------------------|
C|--5-5-5-5-5-5-5-5-5-5-5-5-3-3-3-3-7-7-7-7-7-7-7-7-7-7-7-7-------------------|

Bridge 2: Guitars 1 & 2 (Acoustic)
D|----------------------------------------------------------------------------|
A|----------------------------------------------------------------------------|
F|--7-7-7-7-10-10-10-10-10-10-10-10-12-12-12-12-12-12-12-12-------------------|
C|--5-5-5-5-8--8--8--8--8--8--8--8--10-10-10-10-10-10-10-10-------------------|
G|--5-5-5-5-8--8--8--8--8--8--8--8--10-10-10-10-10-10-10-10-------------------|
C|--5-5-5-5-8--8--8--8--8--8--8--8--10-10-10-10-10-10-10-10-------------------|

Chorus: Guitars 1 & 2 (Acoustic) Play Chorus 2 Times
D|----------------------------------------------------------------------------|
A|----------------------------------------------------------------------------|
F|--7-7-7-7-7-7-7-7-7-7-7-7-7-7-7-7--7-7-7-7-7-7-7-7-7-7-7-7-7-7-7-7----------|
C|--0-0-0-0-0-0-0-0-0-0-0-0-0-0-0-0--5-5-5-5-5-5-5-5-5-5-5-5-5-5-5-5----------|
G|--0-0-0-0-0-0-0-0-0-0-0-0-0-0-0-0--5-5-5-5-5-5-5-5-5-5-5-5-5-5-5-5----------|
C|--0-0-0-0-0-0-0-0-0-0-0-0-0-0-0-0--5-5-5-5-5-5-5-5-5-5-5-5-5-5-5-5----------|

Chorus: Guitars 1 & 2 (Acoustic)
D|----------------------------------------------------------------------------|
A|----------------------------------------------------------------------------|
F|--7-7-7-7-7-7-7-7-7-7-7-7-7-7-7-7--7-7-7-7-7-7-7-7--10101010-9-9-9----------|
C|--0-0-0-0-0-0-0-0-0-0-0-0-0-0-0-0--5-5-5-5-5-5-5-5--8-8-8-8--7-7-7----------|
G|--0-0-0-0-0-0-0-0-0-0-0-0-0-0-0-0--5-5-5-5-5-5-5-5--8-8-8-8--7-7-7----------|
C|--0-0-0-0-0-0-0-0-0-0-0-0-0-0-0-0--5-5-5-5-5-5-5-5--8-8-8-8--7-7-7----------|

Outro: Guitars 1 & 2(Acoustic)
D|----------------------------------------------------------------------------|
A|----------------------------------------------------------------------------|
F|----------------------------------------------------------------------------|
C|--0-------------------------------------------------------------------------|
G|--0-------------------------------------------------------------------------|
C|--0-------------------------------------------------------------------------|

Finished!

Tap to rate this tab
# A B C D E F G H I J K L M N O P Q R S T U V W X Y Z