Song name
# A B C D E F G H I J K L M N O P Q R S T U V W X Y Z

Dust And Blood - Cops Kiss And Drool tab

Help us improve GuitareTab! Take a short survey!
Dust & Blood
Cops Kiss & Drool
Tabbed by U B the band
Tuning C G C F A D

Legend
b-bend                          ()-bend to

Intro/Verse 1: Guitar 1 (Mild Distortion & Lightly Palm Muted)
D|----------------------------------------------------------------------------|
A|--3-3-3-3-3--3-3-3-3-3--3-3-3-3-3--3-2-2-2-2--2-2-2-2-2--2-2-2-2-2--2-2-----|
F|--4-4-4-4-4--4-4-4-4-4--4-4-4-4-4--4-4-4-4-4--4-4-4-4-4--4-4-4-4-4--4-4-----|
C|--4-4-4-4-4--4-4-4-4-4--4-4-4-4-4--4-4-4-4-4--4-4-4-4-4--4-4-4-4-4--4-4-----|
G|----------------------------------------------------------------------------|
C|----------------------------------------------------------------------------|

Verse 1: Guitar 1 (Mild Distortion & Lightly Palm Muted)
D|----------------------------------------------------------------------------|
A|--3-3-3-3-3--3-3-3-3-3--3-3-3-3-3--3-2-2-2-2--2-2-2-2-2--2-2-2-2-2--2-2-----|
F|--4-4-4-4-4--4-4-4-4-4--4-4-4-4-4--4-4-4-4-4--4-4-4-4-4--4-4-4-4-4--4-4-----|
C|--4-4-4-4-4--4-4-4-4-4--4-4-4-4-4--4-4-4-4-4--4-4-4-4-4--4-4-4-4-4--4-4-----|
G|----------------------------------------------------------------------------|
C|----------------------------------------------------------------------------|

Verse 1: Guitar 1 (Mild Distortion & Lightly Palm Muted)
D|----------------------------------------------------------------------------|
A|--7-7-7-7-7--7-7-7-7-7--7-7-7-7-7--7-7-7-7-7--7-7-7-7-7--7-7-7-7-7--7-7-----|
F|--4-4-4-4-4--4-4-4-4-4--4-4-4-4-4--4-4-4-4-4--4-4-4-4-4--4-4-4-4-4--4-4-----|
C|--4-4-4-4-4--4-4-4-4-4--4-4-4-4-4--4-4-4-4-4--4-4-4-4-4--4-4-4-4-4--4-4-----|
G|----------------------------------------------------------------------------|
C|----------------------------------------------------------------------------|

Verse 1: Guitar 1 (Mild Distortion & Lightly Palm Muted)
D|----------------------------------------------------------------------------|
A|--7-7-7-7-7--7-7-7-7-7--7-7-7-7-7--7-7-7-7-7--7-7-7-7-7--7-7-7-7-7--7-7-----|
F|--4-4-4-4-4--4-4-4-4-4--4-4-4-4-4--4-4-4-4-4--4-4-4-4-4--4-4-4-4-4--4-4-----|
C|--4-4-4-4-4--4-4-4-4-4--4-4-4-4-4--4-4-4-4-4--4-4-4-4-4--4-4-4-4-4--4-4-----|
G|----------------------------------------------------------------------------|
C|----------------------------------------------------------------------------|

Chorus: Guitar 1 (Distorted) PLAY CHORUS 4 TIMES
D|----------------------------------------------------------------------------|
A|----------------------------------------------------------------------------|
F|--4-4-4-4--4-4-4-4----------------------------------------------------------|
C|--4-4-4-4--4-4-4-4--6-6-6-6--6-6-6-6--4-4-4-4--4-4-4-4--4-4-4-4--4-4-4-4----|
G|--2-2-2-2--2-2-2-2--6-6-6-6--6-6-6-6--4-4-4-4--4-4-4-4--4-4-4-4--4-4-4-4----|
C|--------------------6-6-6-6--6-6-6-6--4-4-4-4--4-4-4-4--4-4-4-4--4-4-4-4----|
                                                                              |
Chorus: Guitar 2 (Distorted)                                                  |
D|----------------------------------------------------------------------------|
A|-12121212-12121212-12121212-12121212-12121212-12121212-12121212-12121212----|
F|--x-x-x-x--x-x-x-x--x-x-x-x--x-x-x-x--x-x-x-x--x-x-x-x--x-x-x-x--x-x-x-x----|
C|--9-9-9-9--9-9-9-9--9-9-9-9--9-9-9-9--9-9-9-9--9-9-9-9--9-9-9-9--9-9-9-9----|
G|----------------------------------------------------------------------------|
C|----------------------------------------------------------------------------|

Post Chorus: Guitar 1 (Mild Distortion & Lightly Palm Muted)
D|----------------------------------------------------------------------------|
A|--3-3-3-3-3--3-3-3-3-3--3-3-3-3-3--3-2-2-2-2--2-2-2-2-2--2-2-2-2-2--2-2-----|
F|--4-4-4-4-4--4-4-4-4-4--4-4-4-4-4--4-4-4-4-4--4-4-4-4-4--4-4-4-4-4--4-4-----|
C|--4-4-4-4-4--4-4-4-4-4--4-4-4-4-4--4-4-4-4-4--4-4-4-4-4--4-4-4-4-4--4-4-----|
G|----------------------------------------------------------------------------|
C|----------------------------------------------------------------------------|
                                                                              |
Post Chorus: Guitar 2 (Low Distortion with Slider)                            |
D|--7----------------9--------10--------7----------------6---------------2----|
A|----------------------------------------------------------------------------|
F|----------------------------------------------------------------------------|
C|----------------------------------------------------------------------------|
G|----------------------------------------------------------------------------|
C|----------------------------------------------------------------------------|

Post Chorus: Guitar 1 (Mild Distortion & Lightly Palm Muted)
D|----------------------------------------------------------------------------|
A|--3-3-3-3-3--3-3-3-3-3--3-3-3-3-3--3-2-2-2-2--2-2-2-2-2--2-2-2-2-2-2-2------|
F|--4-4-4-4-4--4-4-4-4-4--4-4-4-4-4--4-4-4-4-4--4-4-4-4-4--4-4-4-4-4-4-4------|
C|--4-4-4-4-4--4-4-4-4-4--4-4-4-4-4--4-4-4-4-4--4-4-4-4-4--4-4-4-4-4-4-4------|
G|----------------------------------------------------------------------------|
C|----------------------------------------------------------------------------|
                                                                              |
Post Chorus: Guitar 2 (Low Distortion with Slider)                            |
D|--7----------------9--------10--------7----------------6---------------2----|
A|----------------------------------------------------------------------------|
F|----------------------------------------------------------------------------|
C|----------------------------------------------------------------------------|
G|----------------------------------------------------------------------------|
C|----------------------------------------------------------------------------|

Verse 2: Guitar 1 (Mild Distortion & Lightly Palm Muted)
D|----------------------------------------------------------------------------|
A|--3-3-3-3-3--3-3-3-3-3--3-3-3-3-3--3-2-2-2-2--2-2-2-2-2--2-2-2-2-2--2-2-----|
F|--4-4-4-4-4--4-4-4-4-4--4-4-4-4-4--4-4-4-4-4--4-4-4-4-4--4-4-4-4-4--4-4-----|
C|--4-4-4-4-4--4-4-4-4-4--4-4-4-4-4--4-4-4-4-4--4-4-4-4-4--4-4-4-4-4--4-4-----|
G|----------------------------------------------------------------------------|
C|----------------------------------------------------------------------------|
                                                                              |
Verse 2: Guitar 2 (Low Distortion with Slider)                                |
D|------7---------------------------------------------------------------------|
A|----------------------------------------------------------------------------|
F|----------------------------------------------------------------------------|
C|----------------------------------------------------------------------------|
G|----------------------------------------------------------------------------|
C|----------------------------------------------------------------------------|

Verse 2: Guitar 1 (Mild Distortion & Lightly Palm Muted)
D|----------------------------------------------------------------------------|
A|--3-3-3-3-3--3-3-3-3-3--3-3-3-3-3--3-2-2-2-2--2-2-2-2-2--2-2-2-2-2--2-2-----|
F|--4-4-4-4-4--4-4-4-4-4--4-4-4-4-4--4-4-4-4-4--4-4-4-4-4--4-4-4-4-4--4-4-----|
C|--4-4-4-4-4--4-4-4-4-4--4-4-4-4-4--4-4-4-4-4--4-4-4-4-4--4-4-4-4-4--4-4-----|
G|----------------------------------------------------------------------------|
C|----------------------------------------------------------------------------|

Verse 2: Guitar 1 (Mild Distortion & Lightly Palm Muted)
D|----------------------------------------------------------------------------|
A|--3-3-3-3-3--3-3-3-3-3--3-3-3-3-3--3-2-2-2-2--2-2-2-2-2--2-2-2-2-2--2-2-----|
F|--4-4-4-4-4--4-4-4-4-4--4-4-4-4-4--4-4-4-4-4--4-4-4-4-4--4-4-4-4-4--4-4-----|
C|--4-4-4-4-4--4-4-4-4-4--4-4-4-4-4--4-4-4-4-4--4-4-4-4-4--4-4-4-4-4--4-4-----|
G|----------------------------------------------------------------------------|
C|----------------------------------------------------------------------------|
                                                                              |
Verse 2: Guitar 2 (Low Distortion)                                            |
D|--19------------------------------------------------------------------------|
A|--19------------------------------------------------------------------------|
F|--19------------------------------------------------------------------------|
C|----------------------------------------------------------------------------|
G|----------------------------------------------------------------------------|
C|----------------------------------------------------------------------------|

Verse 2: Guitar 1 (Mild Distortion & Lightly Palm Muted)
D|----------------------------------------------------------------------------|
A|--3-3-3-3-3--3-3-3-3-3--3-3-3-3-3--3-2-2-2-2--2-2-2-2-2--2-2-2-2-2--2-2-----|
F|--4-4-4-4-4--4-4-4-4-4--4-4-4-4-4--4-4-4-4-4--4-4-4-4-4--4-4-4-4-4--4-4-----|
C|--4-4-4-4-4--4-4-4-4-4--4-4-4-4-4--4-4-4-4-4--4-4-4-4-4--4-4-4-4-4--4-4-----|
G|----------------------------------------------------------------------------|
C|----------------------------------------------------------------------------|

Chorus: Guitar 1 (Distorted) PLAY CHORUS 4 TIMES
D|----------------------------------------------------------------------------|
A|----------------------------------------------------------------------------|
F|--4-4-4-4--4-4-4-4----------------------------------------------------------|
C|--4-4-4-4--4-4-4-4--6-6-6-6--6-6-6-6--4-4-4-4--4-4-4-4--4-4-4-4--4-4-4-4----|
G|--2-2-2-2--2-2-2-2--6-6-6-6--6-6-6-6--4-4-4-4--4-4-4-4--4-4-4-4--4-4-4-4----|
C|--------------------6-6-6-6--6-6-6-6--4-4-4-4--4-4-4-4--4-4-4-4--4-4-4-4----|
                                                                              |
Chorus: Guitar 2 (Distorted)                                                  |
D|----------------------------------------------------------------------------|
A|-12121212-12121212-12121212-12121212-12121212-12121212-12121212-12121212----|
F|--x-x-x-x--x-x-x-x--x-x-x-x--x-x-x-x--x-x-x-x--x-x-x-x--x-x-x-x--x-x-x-x----|
C|--9-9-9-9--9-9-9-9--9-9-9-9--9-9-9-9--9-9-9-9--9-9-9-9--9-9-9-9--9-9-9-9----|
G|----------------------------------------------------------------------------|
C|----------------------------------------------------------------------------|

Bridge: Guitar 1 (Distorted) PLAY 4 TIMES
D|----------------------------------------------------------------------------|
A|----------------------------------------------------------------------------|
F|--4-4-4-4--4-4-4-4----------------------------------------------------------|
C|--4-4-4-4--4-4-4-4--0-0-0-0--0-0-0-0--5-5-5-5--5-5-5-5--4-4-4-4--4-4-4-4----|
G|--2-2-2-2--2-2-2-2--0-0-0-0--0-0-0-0--5-5-5-5--5-5-5-5--4-4-4-4--4-4-4-4----|
C|--------------------0-0-0-0--0-0-0-0--5-5-5-5--5-5-5-5--4-4-4-4--4-4-4-4----|
                                                                              |
Bridge: Guitar 2 (Distorted)                                                  |
D|----------------------------------------------------------------------------|
A|-----------------------------------------------10-------12------------------|
F|--9----b--(10)--------------------------------------------------------------|
C|--------------------12-------12-------11------------------------------------|
G|----------------------------------------------------------------------------|
C|----------------------------------------------------------------------------|
                                                                              |
Bridge: Piano Fill-In (Clean) LAST 2 TIMES                                    |
D|----------------------------------------------------------------------------|
A|--12-------------------------15-------14------------------------------------|
F|----------------------------------------------------------------------------|
C|----------------------------------------------------------------------------|
G|----------------------------------------------------------------------------|
C|----------------------------------------------------------------------------|

Post Bridge: Guitar 1 (Distorted)
D|----------------------------------------------------------------------------|
A|--2-------------------------------------------------------------------------|
F|--4-------------------------------------------------------------------------|
C|--4-------------------------------------------------------------------------|
G|--2-------------------------------------------------------------------------|
C|----------------------------------------------------------------------------|
                                                                              |
Post Bridge: Piano Fill-In (Clean)                                            |
D|----------------------------------------------------------------------------|
A|--12-------------------------15-------14------------------------------------|
F|----------------------------------------------------------------------------|
C|----------------------------------------------------------------------------|
G|----------------------------------------------------------------------------|
C|----------------------------------------------------------------------------|

Post Bridge: Guitar 1 (Distorted)
D|----------------------------------------------------------------------------|
A|--2-------------------------------------------------------------------------|
F|--4-------------------------------------------------------------------------|
C|--4-------------------------------------------------------------------------|
G|--2-------------------------------------------------------------------------|
C|----------------------------------------------------------------------------|
                                                                              |
Post Bridge: Piano Fill-In (Clean)                                            |
D|----------------------------------------------------------------------------|
A|--12-------------------------15-------14------------------------------------|
F|------------------------------------------------------------------------11--|
C|----------------------------------------------------------------------------|
G|----------------------------------------------------------------------------|
C|----------------------------------------------------------------------------|

Verse 3: Guitar 1 (Mild Distortion & Lightly Palm Muted)
D|----------------------------------------------------------------------------|
A|--3-3-3-3-3--3-3-3-3-3--3-3-3-3-3--3-2-2-2-2--2-2-2-2-2--2-2-2-2-2--2-2-----|
F|--4-4-4-4-4--4-4-4-4-4--4-4-4-4-4--4-4-4-4-4--4-4-4-4-4--4-4-4-4-4--4-4-----|
C|--4-4-4-4-4--4-4-4-4-4--4-4-4-4-4--4-4-4-4-4--4-4-4-4-4--4-4-4-4-4--4-4-----|
G|----------------------------------------------------------------------------|
C|----------------------------------------------------------------------------|

Verse 3: Guitar 1 (Mild Distortion & Lightly Palm Muted)
D|----------------------------------------------------------------------------|
A|--3-3-3-3-3--3-3-3-3-3--3-3-3-3-3--3-2-2------------------------------------|
F|--4-4-4-4-4--4-4-4-4-4--4-4-4-4-4--4-4-4------------------------------------|
C|--4-4-4-4-4--4-4-4-4-4--4-4-4-4-4--4-4-4------------------------------------|
G|----------------------------------------------------------------------------|
C|----------------------------------------------------------------------------|
                                                                              |
Verse 3: Guitar 2 (Mild Distortion)                                           |
D|----------------------------------------------------------------------------|
A|-----------------------------------3-2-2------------------------------------|
F|-----------------------------------4-4-4------------------------------------|
C|-----------------------------------4-4-4---4---b-------(5)------------------|
G|----------------------------------------------------------------------------|
C|----------------------------------------------------------------------------|

Chorus: Guitar 1 (Distorted) PLAY CHORUS 4 TIMES
D|----------------------------------------------------------------------------|
A|----------------------------------------------------------------------------|
F|--4-4-4-4--4-4-4-4----------------------------------------------------------|
C|--4-4-4-4--4-4-4-4--6-6-6-6--6-6-6-6--4-4-4-4--4-4-4-4--4-4-4-4--4-4-4-4----|
G|--2-2-2-2--2-2-2-2--6-6-6-6--6-6-6-6--4-4-4-4--4-4-4-4--4-4-4-4--4-4-4-4----|
C|--------------------6-6-6-6--6-6-6-6--4-4-4-4--4-4-4-4--4-4-4-4--4-4-4-4----|
                                                                              |
Chorus: Guitar 2 (Distorted)                                                  |
D|----------------------------------------------------------------------------|
A|-12121212-12121212-12121212-12121212-12121212-12121212-12121212-12121212----|
F|--x-x-x-x--x-x-x-x--x-x-x-x--x-x-x-x--x-x-x-x--x-x-x-x--x-x-x-x--x-x-x-x----|
C|--9-9-9-9--9-9-9-9--9-9-9-9--9-9-9-9--9-9-9-9--9-9-9-9--9-9-9-9--9-9-9-9----|
G|----------------------------------------------------------------------------|
C|----------------------------------------------------------------------------|

Outro: Guitar 1 (Distorted) PLAY CHORUS 4 TIMES
D|----------------------------------------------------------------------------|
A|----------------------------------------------------------------------------|
F|--4-4-4-4--4-4-4-4----------------------------------------------------------|
C|--4-4-4-4--4-4-4-4--6-6-6-6--6-6-6-6--4-4-4-4--4-4-4-4--4-4-4-4--4-4-4-4----|
G|--2-2-2-2--2-2-2-2--6-6-6-6--6-6-6-6--4-4-4-4--4-4-4-4--4-4-4-4--4-4-4-4----|
C|--------------------6-6-6-6--6-6-6-6--4-4-4-4--4-4-4-4--4-4-4-4--4-4-4-4----|
                                                                              |
Outro: Guitar 2 (Distorted with Slider)                                       |
D|--7----------------9--------10--------7----------------6---------------2----|
A|----------------------------------------------------------------------------|
F|----------------------------------------------------------------------------|
C|----------------------------------------------------------------------------|
G|----------------------------------------------------------------------------|
C|----------------------------------------------------------------------------|

Outro: Guitar 1 (Distorted)
D|----------------------------------------------------------------------------|
A|----------------------------------------------------------------------------|
F|--4-------------------------------------------------------------------------|
C|--4-------------------------------------------------------------------------|
G|--2-------------------------------------------------------------------------|
C|----------------------------------------------------------------------------|
                                                                              |
Outro: Guitar 2 (Distorted with Slider)                                       |
D|--7-------------------------------------------------------------------------|
A|----------------------------------------------------------------------------|
F|----------------------------------------------------------------------------|
C|----------------------------------------------------------------------------|
G|----------------------------------------------------------------------------|
C|----------------------------------------------------------------------------|

Finished!
Related for Cops Kiss And Drool tab