Guitaretab - guitar tabs
Song name
# A B C D E F G H I J K L M N O P Q R S T U V W X Y Z

Dust And Blood - Chains tab

Dust & Blood
Chains
Tabbed by U B the band
Tuning C G C F A D

Legend
h-hammer on                     x-muted strum                     /-slide up

Intro: Guitar 1 (Low Distortion) JEFF
D|----------------------------------------------------------------------------|
A|----------------------------------------------------------------------------|
F|----------3--------------3---2---0h2----------3-------------3---2---0h2-----|
C|--0---0----------0---0----------------0---0---------0---0-------------------|
G|----------------------------------------------------------------------------|
C|----------------------------------------------------------------------------|

Intro: Guitar 1 (Distorted) JEFF *PLAY 2 TIMES*
D|----------------------------------------------------------------------------|
A|----------------------------------------------------------------------------|
F|------7------7----7-7-7--9-9-9--5-5-5------7------7----7-7-7--9-9-9--5-5-5--|
C|--0-0-x--0-0-x--0-5-5-5--7-7-7--3-3-3--0-0-x--0-0-x--0-5-5-5--7-7-7--3-3-3--|
G|--0-0-5--0-0-5--0-5-5-5--7-7-7--3-3-3--0-0-5--0-0-5--0-5-5-5--7-7-7--3-3-3--|
C|--0-0----0-0----0-5-5-5--7-7-7--3-3-3--0-0----0-0----0-5-5-5--7-7-7--3-3-3--|
                                                                              |
Intro: Guitar 2 (Distorted) DEREK [SLIGHLY BEND 9ís] *PLAY 2 TIMES*           |
D|--9-9-9--9-9-9--9-9-9-9--9-9-9--9-9-9--9-9-9--9-9-9--9-9-9-9--9-9-9--9-9-9--|
A|----------------------------------------------------------------------------|
F|----------------------------------------------------------------------------|
C|----------------------------------------------------------------------------|
G|----------------------------------------------------------------------------|
C|----------------------------------------------------------------------------|

Verse 1: Guitars 1 & 2 (Distorted)
D|----------------------------------------------------------------------------|
A|----------------------------------------------------------------------------|
F|----------------------------------------------------------------------------|
C|--0--0--10--0--7h8--0--5x-0--7x-3-3/5--0--0--10--0--7h8--0--5x-0--7x-3-3/5--|
G|------------------------x-----x------------------------------x-----x--------|
C|------------------------x-----x------------------------------x-----x--------|

Verse 1: Guitars 1 & 2 (Distorted)
D|----------------------------------------------------------------------------|
A|----------------------------------------------------------------------------|
F|----------------------------------------------------------------------------|
C|--0--0--10--0--7h8--0--5x-0--7x-3-3/5--0--0--10--0--7h8--0--5x-0--7x-0-0-0--|
G|------------------------x-----x------------------------------x-----x-5-5-5--|
C|------------------------x-----x------------------------------x-----x--------|

Intro: Guitars 1 & 2 (Distorted)
D|----------------------------------------------------------------------------|
A|----------------------------------------------------------------------------|
F|--10-x--x--x--x--9--x--x--x--x--x--10-x--x--x--x--x---x---------------------|
C|--x--x--x--x--x--x--x--x--x--x--x--x--x--x--x--x--x---x---------------------|
G|--8--x--x--x--x--7--x--x--x--x--x--8--x--x--x--x--x---x---------------------|
C|-----x--x--x--x-----x--x--x--x--x-----x--x--x--x--x---x---------------------|

Verse 1: Guitars 1 & 2 (Distorted)
D|----------------------------------------------------------------------------|
A|----------------------------------------------------------------------------|
F|----------------------------------------------------------------------------|
C|--0--0--10--0--7h8--0--5x-0--7x-3-3/5--0--0--10--0--7h8--0--5x-0--7x-3-3/5--|
G|------------------------x-----x------------------------------x-----x--------|
C|------------------------x-----x------------------------------x-----x--------|

Verse 1: Guitars 1 & 2 (Distorted)
D|----------------------------------------------------------------------------|
A|----------------------------------------------------------------------------|
F|----------------------------------------------------------------------------|
C|--0--0--10--0--7h8--0--5x-0--7x-3-3/5--0--0--10--0--7h8--0--5x-0--7x-0-0-0--|
G|------------------------x-----x------------------------------x-----x-5-5-5--|
C|------------------------x-----x------------------------------x-----x--------|

Intro: Guitars 1 & 2 (Distorted)
D|----------------------------------------------------------------------------|
A|----------------------------------------------------------------------------|
F|--10-x--x--x--x--9--x--x--x--x--x--10-x--x--x--x--x--12--12--12--12--x--x12-|
C|--x--x--x--x--x--x--x--x--x--x--x--x--x--x--x--x--x---x---x---x---x--x--x-x-|
G|--8--x--x--x--x--7--x--x--x--x--x--8--x--x--x--x--x--10--10--10--10--x--x10-|
C|-----x--x--x--x-----x--x--x--x--x-----x--x--x--x--x------------------x--x---|

Intro: Guitars 1 & 2 (Distorted)
D|----------------------------------------------------------------------------|
A|----------------------------------------------------------------------------|
F|--10-x--x--x--x--9--x--x--x--x--x--10-x--x--x--x--x--12--12--12--12---\-----|
C|--x--x--x--x--x--x--x--x--x--x--x--x--x--x--x--x--x---x---x---x---x---------|
G|--8--x--x--x--x--7--x--x--x--x--x--8--x--x--x--x--x--10--10--10--10---\-----|
C|-----x--x--x--x-----x--x--x--x--x-----x--x--x--x--x-------------------------|

Chorus: Guitar 1 (Distorted) JEFF *PLAY 2 TIMES*
D|----------------------------------------------------------------------------|
A|----------------------------------------------------------------------------|
F|------7------7----7-7-7--9-9-9--5-5-5------7------7----7-7-7--9-9-9--5-5-5--|
C|--0-0-x--0-0-x--0-5-5-5--7-7-7--3-3-3--0-0-x--0-0-x--0-5-5-5--7-7-7--3-3-3--|
G|--0-0-5--0-0-5--0-5-5-5--7-7-7--3-3-3--0-0-5--0-0-5--0-5-5-5--7-7-7--3-3-3--|
C|--0-0----0-0----0-5-5-5--7-7-7--3-3-3--0-0----0-0----0-5-5-5--7-7-7--3-3-3--|
                                                                              |
Chorus: Guitar 2 (Distorted) DEREK *PLAY 2 TIMES*                             |
D|----------------------------------------------------------------------------|
A|--13131313-13131313-13131313-13131313--13131313-13131313-13131313-13131313--|
F|--14141414-14141414-14141414-14141414--14141414-14141414-14141414-14141414--|
C|----------------------------------------------------------------------------|
G|----------------------------------------------------------------------------|
C|----------------------------------------------------------------------------|

Chorus: Guitars 1 & 2 (Distorted)
D|----------------------------------------------------------------------------|
A|----------------------------------------------------------------------------|
F|------101010\9---9----9-9-9-9-9-9-9------101010\9---9----9-9-9-9-9-9-9------|
C|--0----x-x-x-x---x----x-x-x-x-x-x-x--0----x-x-x-x---x----x-x-x-x-x-x-x------|
G|--0----8-8-8\7---7----7-7-7-7-7-7-7--0----8-8-8\7---7----7-7-7-7-7-7-7------|
C|--0------------0---------------------0------------0-------------------------|

Verse 1: Guitars 1 & 2 (Distorted)
D|----------------------------------------------------------------------------|
A|----------------------------------------------------------------------------|
F|----------------------------------------------------------------------------|
C|--0--0--10--0--7h8--0--5x-0--7x-3-3/5--0--0--10--0--7h8--0--5x-0--7x-3-3/5--|
G|------------------------x-----x------------------------------x-----x--------|
C|------------------------x-----x------------------------------x-----x--------|

Verse 1: Guitars 1 & 2 (Distorted)
D|----------------------------------------------------------------------------|
A|----------------------------------------------------------------------------|
F|----------------------------------------------------------------------------|
C|--0--0--10--0--7h8--0--5x-0--7x-3-3/5--0--0--10--0--7h8--0--5x-0--7x-0-0-0--|
G|------------------------x-----x------------------------------x-----x-5-5-5--|
C|------------------------x-----x------------------------------x-----x--------|
[ Tab from: http://www.guitaretab.com/d/dust-and-blood/185712.html ]
Intro: Guitars 1 & 2 (Distorted)
D|----------------------------------------------------------------------------|
A|----------------------------------------------------------------------------|
F|--10-x--x--x--x--9--x--x--x--x--x--10-x--x--x--x--x--12--12--12--12---\-----|
C|--x--x--x--x--x--x--x--x--x--x--x--x--x--x--x--x--x---x---x---x---x---------|
G|--8--x--x--x--x--7--x--x--x--x--x--8--x--x--x--x--x--10--10--10--10---\-----|
C|-----x--x--x--x-----x--x--x--x--x-----x--x--x--x--x-------------------------|

Chorus: Guitar 1 (Distorted) JEFF *PLAY 2 TIMES*
D|----------------------------------------------------------------------------|
A|----------------------------------------------------------------------------|
F|------7------7----7-7-7--9-9-9--5-5-5------7------7----7-7-7--9-9-9--5-5-5--|
C|--0-0-x--0-0-x--0-5-5-5--7-7-7--3-3-3--0-0-x--0-0-x--0-5-5-5--7-7-7--3-3-3--|
G|--0-0-5--0-0-5--0-5-5-5--7-7-7--3-3-3--0-0-5--0-0-5--0-5-5-5--7-7-7--3-3-3--|
C|--0-0----0-0----0-5-5-5--7-7-7--3-3-3--0-0----0-0----0-5-5-5--7-7-7--3-3-3--|
                                                                              |
Chorus: Guitar 2 (Distorted) DEREK *PLAY 2 TIMES*                             |
D|----------------------------------------------------------------------------|
A|--13131313-13131313-13131313-13131313--13131313-13131313-13131313-13131313--|
F|--14141414-14141414-14141414-14141414--14141414-14141414-14141414-14141414--|
C|----------------------------------------------------------------------------|
G|----------------------------------------------------------------------------|
C|----------------------------------------------------------------------------|

Chorus: Guitars 1 & 2 (Distorted)
D|----------------------------------------------------------------------------|
A|----------------------------------------------------------------------------|
F|------101010\9---9----9-9-9-9-9-9-9------101010\9---9----9-9-9-9-9-9-9------|
C|--0----x-x-x-x---x----x-x-x-x-x-x-x--0----x-x-x-x---x----x-x-x-x-x-x-x------|
G|--0----8-8-8\7---7----7-7-7-7-7-7-7--0----8-8-8\7---7----7-7-7-7-7-7-7------|
C|--0------------0---------------------0------------0-------------------------|

Bridge: Guitar 1 (Distorted) PLAY ENTIRE BRIDGE 4 TIMES
D|----------------------------------------------------------------------------|
A|----------------------------------------------------------------------------|
F|--14--14--14--14---14--14--14--14---14--14--14--14---15--15--15--15---------|
C|---x---x---x---x----x---x---x---x----x---x---x---x----x---x---x---x---------|
G|--12--12--12--12---12--12--12--12---12--12--12--12---13--13--13--13---------|
C|----------------------------------------------------------------------------|

Bridge: Guitar 1 (Distorted)
D|----------------------------------------------------------------------------|
A|----------------------------------------------------------------------------|
F|--14--14--14--14---14--14--14--14---10--10--10--10---12--12--12--12---------|
C|---x---x---x---x----x---x---x---x----x---x---x---x----x---x---x---x---------|
G|--12--12--12--12---12--12--12--12----8---8---8---8---10--10--10--10---------|
C|----------------------------------------------------------------------------|

Verse 3: Guitar 1
D|----------------------------------------------------------------------------|
A|----------------------------------------------------------------------------|
F|----------------------------------------------------------------------------|
C|--0--0--10--0--7h8--0--5-\--------------------------------------------------|
G|----------------------------------------------------------------------------|
C|----------------------------------------------------------------------------|

Verse 3: Guitars 1 & 2 (Distorted)
D|----------------------------------------------------------------------------|
A|----------------------------------------------------------------------------|
F|--------------------------------------------------------------12----14----7-|
C|--0--0--10--0--7h8--0--5-\-------------------------------------x-----x----x-|
G|--------------------------------------------------------------10----12----5-|
C|----------------------------------------------------------------------------|

Verse 3: Guitars 1 & 2 (Distorted)
D|----------------------------------------------------------------------------|
A|----------------------------------------------------------------------------|
F|--10-x--x--x--x--9--x--x--x--x--x--10-x--x--x--x--x--12--12--12--12---\-----|
C|--x--x--x--x--x--x--x--x--x--x--x--x--x--x--x--x--x---x---x---x---x---------|
G|--8--x--x--x--x--7--x--x--x--x--x--8--x--x--x--x--x--10--10--10--10---\-----|
C|-----x--x--x--x-----x--x--x--x--x-----x--x--x--x--x-------------------------|

Chorus: Guitar 1 (Distorted) JEFF *PLAY 2 TIMES*
D|----------------------------------------------------------------------------|
A|----------------------------------------------------------------------------|
F|------7------7----7-7-7--9-9-9--5-5-5------7------7----7-7-7--9-9-9--5-5-5--|
C|--0-0-x--0-0-x--0-5-5-5--7-7-7--3-3-3--0-0-x--0-0-x--0-5-5-5--7-7-7--3-3-3--|
G|--0-0-5--0-0-5--0-5-5-5--7-7-7--3-3-3--0-0-5--0-0-5--0-5-5-5--7-7-7--3-3-3--|
C|--0-0----0-0----0-5-5-5--7-7-7--3-3-3--0-0----0-0----0-5-5-5--7-7-7--3-3-3--|
                                                                              |
Chorus: Guitar 2 (Distorted) DEREK *PLAY 2 TIMES*                             |
D|----------------------------------------------------------------------------|
A|--13131313-13131313-13131313-13131313--13131313-13131313-13131313-13131313--|
F|--14141414-14141414-14141414-14141414--14141414-14141414-14141414-14141414--|
C|----------------------------------------------------------------------------|
G|----------------------------------------------------------------------------|
C|----------------------------------------------------------------------------|

Chorus: Guitar 1 (Distorted) JEFF *PLAY 2 TIMES*
D|----------------------------------------------------------------------------|
A|----------------------------------------------------------------------------|
F|------7------7----7-7-7--9-9-9--5-5-5------7------7----7-7-7--9-9-9--5-5-5--|
C|--0-0-x--0-0-x--0-5-5-5--7-7-7--3-3-3--0-0-x--0-0-x--0-5-5-5--7-7-7--3-3-3--|
G|--0-0-5--0-0-5--0-5-5-5--7-7-7--3-3-3--0-0-5--0-0-5--0-5-5-5--7-7-7--3-3-3--|
C|--0-0----0-0----0-5-5-5--7-7-7--3-3-3--0-0----0-0----0-5-5-5--7-7-7--3-3-3--|
                                                                              |
Chorus: Guitar 2 (Distorted) DEREK *PLAY 2 TIMES*                             |
D|----------------------------------------------------------------------------|
A|--15151515-15151515-13131313-13131313--15151515-15151515-13131313-13131313--|
F|--14141414-14141414-14141414-14141414--14141414-14141414-14141414-14141414--|
C|----------------------------------------------------------------------------|
G|----------------------------------------------------------------------------|
C|----------------------------------------------------------------------------|

Chorus/Outro: Guitar 1 (Distorted)
D|----------------------------------------------------------------------------|
A|----------------------------------------------------------------------------|
F|------7------7----7-7-7--9-9-9--5-5-5---------------------------------------|
C|--0-0-x--0-0-x--0-5-5-5--7-7-7--3-3-3--0------------------------------------|
G|--0-0-5--0-0-5--0-5-5-5--7-7-7--3-3-3--0------------------------------------|
C|--0-0----0-0----0-5-5-5--7-7-7--3-3-3--0------------------------------------|
                                                                              |
Chorus/Outro: Guitar 2 (Distorted)                                            |
D|----------------------------------------------------------------------------|
A|--15151515-15151515-13131313-13131313---------------------------------------|
F|--14141414-14141414-14141414-14141414---------------------------------------|
C|----------------------------------------------------------------------------|
G|----------------------------------------------------------------------------|
C|----------------------------------------------------------------------------|

Finished


Related for Chains tab