Song name
# A B C D E F G H I J K L M N O P Q R S T U V W X Y Z

Dust And Blood - I Keep Running tab

Help us improve GuitareTab! Take a short survey!
Dust & Blood
I Keep Running
Tabbed by U B the band
Tuning C G C F A D

Legend
p-pull off             /-slide up             /-slide down             b-bend


Intro: Guitar 1 (Low Distortion with Delay) PLAY 2 TIMES
D|----------------------------------------------------------------------------|
A|----------------------------------------------------------------------------|
F|----------------------------------------------------------------------------|
C|------0---2----------0---5--------------0---2---------0---5-p0------3-------|
G|--0--------------0------------------0-------------0-------------0-----------|
C|----------------------------------------------------------------------------|

Verse 1: Guitar 1 (Low Distortion) PLAY 2 TIMES
D|----------------------------------------------------------------------------|
A|--------1---------0--------------------------1---------0--------------------|
F|----------------------------0------------------------------------0----------|
C|--2/3\2-----2/3\2-----2/3\2----2--3----2/3\2-----2/3\2-----2/3\2----2--3----|
G|----------------------------------------------------------------------------|
C|----------------------------------------------------------------------------|

Chorus: Guitar 1 (Distorted)
D|----------------------------------------------------------------------------|
A|----------------------------------------------------------------------------|
F|----------------------------------12-12-12-12-12-12-12-121010101010101010---|
C|-----------------------------------x--x--x--x--x--x--x--x-x-x-x-x-x-x-x-x---|
G|--7-7-7-7-7-7-7-7-7-7-7-7-7-7-7-7-10-10-10-10-10-10-10-10-8-8-8-8-8-8-8-8---|
C|--7-7-7-7-7-7-7-7-7-7-7-7-7-7-7-7-------------------------------------------|
                                                                              |
Chorus: Guitar 2 (Distorted)                                                  |
D|----------------------------------------------------------------------------|
A|--1313131313131313151515151515151512-12-12-12-12-12-12-12-13-----10---------|
F|---x-x-x-x-x-x-x-x-x-x-x-x-x-x-x-x-x--x--x--x--x--x--x--x-------------------|
C|--10101010101010101212121212121212-9--9--9--9--9--9--9--9-------------------|
G|----------------------------------------------------------------------------|
C|----------------------------------------------------------------------------|

Post Chorus: Guitar 1 (Low Distortion)
D|----------------------------------------------------------------------------|
A|--------1---------0--------------------------1---------0--------------------|
F|----------------------------0------------------------------------0----------|
C|--2/3\2-----2/3\2-----2/3\2----2--3----2/3\2-----2/3\2-----2/3\2----2--3----|
G|----------------------------------------------------------------------------|
C|----------------------------------------------------------------------------|
                                                                              |
Post Chorus: Guitar 2 (Distorted)                                             |
D|----------------------------------------------------------------------------|
A|--------13--------12-------------------------13--------12-------------------|
F|--9---------9---------9-----12-9b(10)--9---------9---------9-----12-9b(10)--|
C|----------------------------------------------------------------------------|
G|----------------------------------------------------------------------------|
C|----------------------------------------------------------------------------|

Verse 2: Guitar 1 (Low Distortion)
D|----------------------------------------------------------------------------|
A|--------1---------0--------------------------1---------0--------------------|
F|----------------------------0------------------------------------0----------|
C|--2/3\2-----2/3\2-----2/3\2----2--3----2/3\2-----2/3\2-----2/3\2----2--3----|
G|----------------------------------------------------------------------------|
C|----------------------------------------------------------------------------|
                                                                              |
Verse 2: Guitar 2 (Distorted)                                                 |
D|----------------------------------------------------------------------------|
A|----------------------------------------------------------------------------|
F|--9-------------------------------------------------------------------------|
C|----------------------------------------------------------------------------|
G|----------------------------------------------------------------------------|
C|----------------------------------------------------------------------------|

Verse 2: Guitar 1 (Low Distortion)
D|----------------------------------------------------------------------------|
A|--------1---------0--------------------------1---------0--------------------|
F|----------------------------0------------------------------------0----------|
C|--2/3\2-----2/3\2-----2/3\2----2--3----2/3\2-----2/3\2-----2/3\2----2--3----|
G|----------------------------------------------------------------------------|
C|----------------------------------------------------------------------------|
                                                                              |
Verse 2: Guitar 2 (Distorted)                                                 |
D|----------------------------------------------------------------------------|
A|--------13--------12-------------------------13--------12-------------------|
F|--9---------9---------9-----12-9b(10)--9---------9---------9-----12-9b(10)--|
C|----------------------------------------------------------------------------|
G|----------------------------------------------------------------------------|
C|----------------------------------------------------------------------------|

Chorus: Guitar 1 (Distorted)
D|----------------------------------------------------------------------------|
A|----------------------------------------------------------------------------|
F|----------------------------------12-12-12-12-12-12-12-121010101010101010---|
C|-----------------------------------x--x--x--x--x--x--x--x-x-x-x-x-x-x-x-x---|
G|--7-7-7-7-7-7-7-7-7-7-7-7-7-7-7-7-10-10-10-10-10-10-10-10-8-8-8-8-8-8-8-8---|
C|--7-7-7-7-7-7-7-7-7-7-7-7-7-7-7-7-------------------------------------------|
                                                                              |
Chorus: Guitar 2 (Distorted)                                                  |
D|----------------------------------------------------------------------------|
A|--1313131313131313151515151515151512-12-12-12-12-12-12-12-13-----10---------|
F|---x-x-x-x-x-x-x-x-x-x-x-x-x-x-x-x-x--x--x--x--x--x--x--x-------------------|
C|--10101010101010101212121212121212-9--9--9--9--9--9--9--9-------------------|
G|----------------------------------------------------------------------------|
C|----------------------------------------------------------------------------|

Bridge: Guitar 1 (Distorted) PLAY 2 TIMES
D|----------------------------------------------------------------------------|
A|----------------------------------------------------------------------------|
F|----------------------------------------------------------------------------|
C|--7-7-7-7--7-7-7-7---5-5-5-5--5-5-5-5---5-5-5-5--5-5-5-5---3-3-3-3--3-3-3-3-|
G|--7-7-7-7--7-7-7-7---5-5-5-5--5-5-5-5---5-5-5-5--5-5-5-5---3-3-3-3--3-3-3-3-|
C|--7-7-7-7--7-7-7-7---5-5-5-5--5-5-5-5---5-5-5-5--5-5-5-5---3-3-3-3--3-3-3-3-|
                                                                              |
Bridge: Guitar 2 (Distorted) PLAY 2 TIMES                                     |
D|----------------------------------------------------------------------------|
A|-101010-121212-13---101010-121212-13---101010-121212-13---15-----13-----12--|
F|--x-x-x--x-x-x--x----x-x-x--x-x-x--x----x-x-x--x-x-x--x----x------x------x--|
C|--7-7-7--9-9-9-10----7-7-7--9-9-9-10----7-7-7--9-9-9-10---12-----10------9--|
G|----------------------------------------------------------------------------|
C|----------------------------------------------------------------------------|

Bridge: Guitar 1 (Distorted) PLAY 1 TIME
D|----------------------------------------------------------------------------|
A|----------------------------------------------------------------------------|
F|----------------------------------------------------------------------------|
C|--7-7-7-7--7-7-7-7---5-5-5-5--5-5-5-5---5-5-5-5--5-5-5-5---3-3-3-3--3-3-3-3-|
G|--7-7-7-7--7-7-7-7---5-5-5-5--5-5-5-5---5-5-5-5--5-5-5-5---3-3-3-3--3-3-3-3-|
C|--7-7-7-7--7-7-7-7---5-5-5-5--5-5-5-5---5-5-5-5--5-5-5-5---3-3-3-3--3-3-3-3-|
                                                                              |
Bridge: Guitar 2 (Distorted) PLAY 1 TIME                                      |
D|----------------------------------------------------------------------------|
A|--15--15---15--15---13--13---13--13---13--13---13--13---12-12-12-12-12-12-12|
F|---x---x----x---x----x---x----x---x----x---x----x---x----x--x--x--x--x--x--x|
C|--12--12---12--12---10--10---10--10---10--10---10--10----9--9--9--9--9--9--9|
G|----------------------------------------------------------------------------|
C|----------------------------------------------------------------------------|

Bridge: Guitar 1 (Distorted) PLAY 1 TIME
D|----------------------------------------------------------------------------|
A|----------------------------------------------------------------------------|
F|----------------------------------------------------------------------------|
C|--7-7-7-7--7-7-7-7---5-5-5-5--5-5-5-5---5-5-5-5--5-5-5-5---3-3-3-3--3-3-3-3-|
G|--7-7-7-7--7-7-7-7---5-5-5-5--5-5-5-5---5-5-5-5--5-5-5-5---3-3-3-3--3-3-3-3-|
C|--7-7-7-7--7-7-7-7---5-5-5-5--5-5-5-5---5-5-5-5--5-5-5-5---3-3-3-3--3-3-3-3-|
                                                                              |
Bridge: Guitar 2 (Distorted) PLAY 1 TIME                                      |
D|----------------------------------------------------------------------------|
A|-101010-121212-13---101010-121212-13---101010-121212-13---15-----13-----12--|
F|--x-x-x--x-x-x--x----x-x-x--x-x-x--x----x-x-x--x-x-x--x----x------x------x--|
C|--7-7-7--9-9-9-10----7-7-7--9-9-9-10----7-7-7--9-9-9-10---12-----10------9--|
G|----------------------------------------------------------------------------|
C|----------------------------------------------------------------------------|

Intro 2: Guitar 1 (Low Distortion)
D|----------------------------------------------------------------------------|
A|----------------------------------------------------------------------------|
F|----------------------------------------------------------------------------|
C|------0---2----------0---5--------------0---2---------0---5-p0------3-------|
G|--0--------------0------------------0-------------0-------------0-----------|
C|----------------------------------------------------------------------------|
                                                                              |
Intro 2: Guitar 2 (Distorted)                                                 |
D|----------------------------------------------------------------------------|
A|----------------------------------------------------------------------------|
F|----------------------------------------------------------------------------|
C|--7-------------------------------------------------------------------------|
G|--7-------------------------------------------------------------------------|
C|--7-------------------------------------------------------------------------|

Verse 3: Guitar 1 (Low Distortion)
D|----------------------------------------------------------------------------|
A|--------1---------0--------------------------1---------0--------------------|
F|----------------------------0------------------------------------0----------|
C|--2/3\2-----2/3\2-----2/3\2----2--3----2/3\2-----2/3\2-----2/3\2----2--3----|
G|----------------------------------------------------------------------------|
C|----------------------------------------------------------------------------|

Chorus: Guitar 1 (Distorted) PLAY 2 TIMES
D|----------------------------------------------------------------------------|
A|----------------------------------------------------------------------------|
F|----------------------------------12-12-12-12-12-12-12-121010101010101010---|
C|-----------------------------------x--x--x--x--x--x--x--x-x-x-x-x-x-x-x-x---|
G|--7-7-7-7-7-7-7-7-7-7-7-7-7-7-7-7-10-10-10-10-10-10-10-10-8-8-8-8-8-8-8-8---|
C|--7-7-7-7-7-7-7-7-7-7-7-7-7-7-7-7-------------------------------------------|
                                                                              |
Chorus: Guitar 2 (Distorted)                                                  |
D|----------------------------------------------------------------------------|
A|--1313131313131313151515151515151512-12-12-12-12-12-12-12-13-----10---------|
F|---x-x-x-x-x-x-x-x-x-x-x-x-x-x-x-x-x--x--x--x--x--x--x--x-------------------|
C|--10101010101010101212121212121212-9--9--9--9--9--9--9--9-------------------|
G|----------------------------------------------------------------------------|
C|----------------------------------------------------------------------------|

Chorus: Guitar 1 (Distorted)
D|----------------------------------------------------------------------------|
A|----------------------------------------------------------------------------|
F|----------------------------------12-12-12-12-12-12-12-121010101010101010---|
C|-----------------------------------x--x--x--x--x--x--x--x-x-x-x-x-x-x-x-x---|
G|--7-7-7-7-7-7-7-7-7-7-7-7-7-7-7-7-10-10-10-10-10-10-10-10-8-8-8-8-8-8-8-8---|
C|--7-7-7-7-7-7-7-7-7-7-7-7-7-7-7-7-------------------------------------------|
                                                                              |
Chorus: Guitar 2 (Distorted)                                                  |
D|----------------------------------------------------------------------------|
A|--1313131313131313151515151515151512-12-12-12-12-12-12-12-13-----10---------|
F|---x-x-x-x-x-x-x-x-x-x-x-x-x-x-x-x-x--x--x--x--x--x--x--x-------------------|
C|--10101010101010101212121212121212-9--9--9--9--9--9--9--9-------------------|
G|----------------------------------------------------------------------------|
C|----------------------------------------------------------------------------|
                                                                              |
Chorus: Guitar 3 FILL-IN (Distorted)                                          |
D|----------------------------------------------------------------------------|
A|--------13--------12-------------------------13--------12-------------------|
F|--9---------9---------9-----12-9b(10)--9---------9---------9-----12-9b(10)--|
C|----------------------------------------------------------------------------|
G|----------------------------------------------------------------------------|
C|----------------------------------------------------------------------------|

Chorus: Guitar 1 (Distorted)
D|----------------------------------------------------------------------------|
A|----------------------------------------------------------------------------|
F|----------------------------------12-12-12-12-12-12-12-121010101212121212---|
C|-----------------------------------x--x--x--x--x--x--x--x-x-x-x-x-x-x-x-x---|
G|--7-7-7-7-7-7-7-7-7-7-7-7-7-7-7-7-10-10-10-10-10-10-10-10-8-8-81010101010---|
C|--7-7-7-7-7-7-7-7-7-7-7-7-7-7-7-7-------------------------------------------|
                                                                              |
Chorus: Guitar 2 (Distorted)                                                  |
D|----------------------------------------------------------------------------|
A|--1313131313131313151515151515151512-12-12-12-12-12-12-12-13-----10---------|
F|---x-x-x-x-x-x-x-x-x-x-x-x-x-x-x-x-x--x--x--x--x--x--x--x-------------------|
C|--10101010101010101212121212121212-9--9--9--9--9--9--9--9-------------------|
G|----------------------------------------------------------------------------|
C|----------------------------------------------------------------------------|
                                                                              |
Chorus: Guitar 3 FILL-IN (Distorted)                                          |
D|----------------------------------------------------------------------------|
A|--------13--------12-------------------------13--------12-------------------|
F|--9---------9---------9-----12-9b(10)--9---------9---------9-----12-9b(10)--|
C|----------------------------------------------------------------------------|
G|----------------------------------------------------------------------------|
C|----------------------------------------------------------------------------|

Outro: Guitar 1 (Distorted)
D|----------------------------------------------------------------------------|
A|----------------------------------------------------------------------------|
F|----------------------------------------------------------------------------|
C|--7-------------------------------------------------------------------------|
G|--7-------------------------------------------------------------------------|
C|--7-------------------------------------------------------------------------|

Finished
Related for I Keep Running tab