Song name
# A B C D E F G H I J K L M N O P Q R S T U V W X Y Z

Dust And Blood - The Ending tab

Dust & Blood
The Ending
Tabbed by U B the band
Tuning D G C F A D

Legend
\-slide down             *-harmonic             b-bend             ()-bend to

Intro: Guitar 1 (Distorted & slightly palm muted)
D|----------------------------------------------------------------------------|
A|----------------------------------------------------------------------------|
F|----------------------------------------------------------------------------|
C|-----------5------------------------------------5---------------------------|
G|------------------6-------6----------------------------6-------6------------|
D|--000--0-0----0-0---0-0-0---0-0-0-0----000--0-0----0-0---0-0-0---0-0-0-0----|
                                                                              |
Intro: Guitar 2 (Distorted)                                                   |
D|----------------------------------------------------------------------------|
A|----------------------------------------------------------------------------|
F|----------------------------------------------------------------------------|
C|--2-------------------------------------------------------------------------|
G|--2-------------------------------------------------------------------------|
D|--0-------------------------------------------------------------------------|

Intro: Guitar 1 (Distorted & slightly palm muted)
D|----------------------------------------------------------------------------|
A|----------------------------------------------------------------------------|
F|----------------------------------------------------------------------------|
C|-----------5------------------------------------5-----------------------8\--|
G|------------------6-------6----------------------------6-------6--------6\--|
D|--000--0-0----0-0---0-0-0---0-0-0-0----000--0-0----0-0---0-0-0---0-0-0------|
                                                                              |
Intro: Guitar 2 (Distorted)                                                   |
D|----------------------------------------------------------------------------|
A|----------------------------------------------------------------------------|
F|----------------------------------------------------------------------------|
C|--2-------------------------------------------------------------------------|
G|--2-------------------------------------------------------------------------|
D|--0-------------------------------------------------------------------------|

Verse 1: Guitar 1 (Distorted & palm muted)
D|----------------------------------------------------------------------------|
A|----------------------------------------------------------------------------|
F|----------------------------------------------------------------------------|
C|-----------5------------------------------------5---------------------------|
G|------------------6-------6----------------------------6-------6------------|
D|--000--0-0----0-0---0-0-0---0-0-0-0----000--0-0----0-0---0-0-0---0-0-0-0----|

Verse 1: Guitar 1 (Distorted & palm muted)
D|----------------------------------------------------------------------------|
A|----------------------------------------------------------------------------|
F|----------------------------------------------------------------------------|
C|-----------5------------------------------------5---------------------------|
G|------------------6-------6----------------------------6-------6------------|
D|--000--0-0----0-0---0-0-0---0-0-0-0----000--0-0----0-0---0-0-0---0-0-0-0----|
                                                                              |
Verse 1: Guitar 2 (Clean with Reverb)                                         |
D|----------------------------------------------------------------------------|
A|-------------------------------------------------------5*-------------------|
F|-------------------------------------------------------5*-------------------|
C|-------------------------------------------------------5*-------------------|
G|----------------------------------------------------------------------------|
D|----------------------------------------------------------------------------|

Verse 1: Guitar 1 (Distorted & palm muted)
D|----------------------------------------------------------------------------|
A|----------------------------------------------------------------------------|
F|----------------------------------------------------------------------------|
C|-----------5------------------------------------5---------------------------|
G|------------------6-------6----------------------------6-------6------------|
D|--000--0-0----0-0---0-0-0---0-0-0-0----000--0-0----0-0---0-0-0---0-0-0-0----|

Verse 1: Guitar 1 (Distorted & palm muted)
D|----------------------------------------------------------------------------|
A|----------------------------------------------------------------------------|
F|----------------------------------------------------------------------------|
C|-----------5------------------------------------5---------------------------|
G|------------------6-------6----------------------------6------b------(7)----|
D|--000--0-0----0-0---0-0-0---0-0-0-0----000--0-0----0-0----------------------|

Pre Chorus: Guitar 1 (Distorted)
D|----------------------------------------------------------------------------|
A|----------------------------------------------------------------------------|
F|----------------------------------------------------------------------------|
C|--7--5--5-5-5--5--4--4-4-4--------------------------------------------------|
G|--5--3--3-3-3--3--2--2-2-2--------------------------------------------------|
D|----------------------------12*-11*-10*-9*-8*-7*-6*-5*-4*-3*-2*-1*--1*-2*-3*|
                                                                              |
Pre Chorus: Guitar 2 (Distorted)                                              |
D|----------------------------------------------------------------------------|
A|----------------------------------------------------------------------------|
F|----------------------------------------------------------------------------|
C|--7--5--5-5-5--5--4--4-4-4--2--------------------------------2---2----2-2---|
G|--5--3--3-3-3--3--2--2-2-2--2--------------------------------2---2----2-2---|
D|----------------------------0--------------------------------0---0----0-0---|

Pre Chorus: Guitar 1 (Distorted & palm muted)
D|----------------------------------------------------------------------------|
A|----------------------------------------------------------------------------|
F|-----------------------------------------9------8--------8------------------|
C|--7--5--5-5-5--5--4--4-4-4--------------------------------------------------|
G|--5--3--3-3-3--3--2--2-2-2------777--7-7----7-7----7-7-7----7-7-7-7---------|
D|----------------------------------------------------------------------------|

Pre Chorus: Guitar 1 (Distorted & palm muted)
D|----------------------------------------------------------------------------|
A|----------------------------------------------------------------------------|
F|-----------9------8------b------(10)----------------------------------------|
C|----------------------------------------------9\----------------------------|
G|--777--7-7----7-7-----------------------------7\----------------------------|
D|----------------------------------------------------------------------------|

Verse 2: Guitar 1 (Distorted & palm muted)
D|----------------------------------------------------------------------------|
A|----------------------------------------------------------------------------|
F|----------------------------------------------------------------------------|
C|-----------5------------------------------------5---------------------------|
G|------------------6-------6----------------------------6-------6------------|
D|--000--0-0----0-0---0-0-0---0-0-0-0----000--0-0----0-0---0-0-0---0-0-0-0----|

Verse 2: Guitar 1 (Distorted & palm muted)
D|----------------------------------------------------------------------------|
A|----------------------------------------------------------------------------|
F|----------------------------------------------------------------------------|
C|-----------5------------------------------------5---------------------------|
G|------------------6-------6----------------------------6-------6------------|
D|--000--0-0----0-0---0-0-0---0-0-0-0----000--0-0----0-0---0-0-0---0-0-0-0----|
                                                                              |
Verse 2: Guitar 2 (Clean with Reverb)                                         |
D|------------------------------------------------12*-------------------------|
A|-------------------------------------------------------12b(13)--------------|
F|----------------------------------------------------------------------------|
C|----------------------------------------------------------------------------|
G|----------------------------------------------------------------------------|
D|----------------------------------------------------------------------------|

Verse 2: Guitar 1 (Distorted & palm muted)
D|----------------------------------------------------------------------------|
A|----------------------------------------------------------------------------|
F|----------------------------------------------------------------------------|
C|-----------5------------------------------------5---------------------------|
G|------------------6-------6----------------------------6-------6------------|
D|--000--0-0----0-0---0-0-0---0-0-0-0----000--0-0----0-0---0-0-0---0-0-0-0----|

Verse 2: Guitar 1 (Distorted & palm muted)
D|----------------------------------------------------------------------------|
A|----------------------------------------------------------------------------|
F|----------------------------------------------------------------------------|
C|-----------5------------------------------------5---------------------------|
G|------------------6-------6----------------------------6------b------(7)----|
D|--000--0-0----0-0---0-0-0---0-0-0-0----000--0-0----0-0----------------------|

Chorus: Guitar 1 (Distorted) PLAY CHORUS 2 TIMES
D|----------------------------------------------------------------------------|
A|----------------------------------------------------------------------------|
F|--4-4--4-4--4-4-4--4--------------------------------------------------------|
C|--2-2--2-2--2-2-2--2--4-4--4-4--4-4--4-4--5-5--5-5--5-5-5-------------------|
G|----------------------2-2--2-2--2-2--2-2--3-3--3-3--3-3-3--5-5-5--4-4-4-4-4-|
D|-----------------------------------------------------------3-3-3--2-2-2-2-2-|
                                                                              |
Chorus: Guitar 2 (Distorted)                                                  |
D|--15------14------------------------------15------14------------------------|
A|-------------------15--------------------------------------15-----17--------|
F|----------------------------------------------------------------------------|
C|----------------------------------------------------------------------------|
G|----------------------------------------------------------------------------|
D|----------------------------------------------------------------------------|

Chorus: Guitar 1 (Distorted)
D|----------------------------------------------------------------------------|
A|----------------------------------------------------------------------------|
F|--4-4--4-4--4-4-4--4--------------------------------------------------------|
C|--2-2--2-2--2-2-2--2--4-4--4-4--4-4--4-4--5-5--5-5--5-5-5-------------------|
G|----------------------2-2--2-2--2-2--2-2--3-3--3-3--3-3-3--5-5-5--4-4-4-4-4-|
D|-----------------------------------------------------------3-3-3--2-2-2-2-2-|
                                                                              |
Chorus: Guitar 2 (Distorted)                                                  |
D|--15------14----------------------------------------------------------------|
A|-------------------15-------------------------------------------------------|
F|------------------------------------------16--------------------------------|
C|----------------------------------------------------------------------------|
G|----------------------------------------------------------------------------|
D|----------------------------------------------------------------------------|

Post Chorus: Guitar 1 (Distorted & slightly palm muted)
D|----------------------------------------------------------------------------|
A|----------------------------------------------------------------------------|
F|-----------9------8-------8---------------------9------8------b------(10)---|
C|----------------------------------------------------------------------------|
G|--777--7-7----7-7---7-7-7---7-7-7-7----777--7-7----7-7----------------------|
D|----------------------------------------------------------------------------|

Verse 3: Guitar 1 (Distorted & palm muted)
D|----------------------------------------------------------------------------|
A|----------------------------------------------------------------------------|
F|----------------------------------------------------------------------------|
C|-----------5------------------------------------5---------------------------|
G|------------------6-------6----------------------------6-------6------------|
D|--000--0-0----0-0---0-0-0---0-0-0-0----000--0-0----0-0---0-0-0---0-0-0-0----|

Verse 3: Guitar 1 (Distorted & palm muted)
D|----------------------------------------------------------------------------|
A|----------------------------------------------------------------------------|
F|----------------------------------------------------------------------------|
C|-----------5------------------------------------5---------------------------|
G|------------------6-------6----------------------------6-------6------------|
D|--000--0-0----0-0---0-0-0---0-0-0-0----000--0-0----0-0---0-0-0---0-0-0-0----|
                                                                              |
Verse 3: Guitar 2 (Clean with Reverb)                                         |
D|--------------------------------------------0-------------------------------|
A|------------------------------------------------8---------------------------|
F|----------------------------------------------------11----------------------|
C|----------------------------------------------------------------------------|
G|----------------------------------------------------------------------------|
D|----------------------------------------------------------------------------|

Verse 3: Guitar 1 (Distorted & palm muted)
D|----------------------------------------------------------------------------|
A|----------------------------------------------------------------------------|
F|----------------------------------------------------------------------------|
C|-----------5------------------------------------5---------------------------|
G|------------------6-------6----------------------------6-------6------------|
D|--000--0-0----0-0---0-0-0---0-0-0-0----000--0-0----0-0---0-0-0---0-0-0-0----|

Verse 3: Guitar 1 (Distorted & palm muted)
D|----------------------------------------------------------------------------|
A|----------------------------------------------------------------------------|
F|----------------------------------------------------------------------------|
C|-----------5------------------------------------5---------------------------|
G|------------------6-------6----------------------------6------b------(7)----|
D|--000--0-0----0-0---0-0-0---0-0-0-0----000--0-0----0-0----------------------|

Chorus: Guitar 1 (Distorted) PLAY CHORUS 2 TIMES
D|----------------------------------------------------------------------------|
A|----------------------------------------------------------------------------|
F|--4-4--4-4--4-4-4--4--------------------------------------------------------|
C|--2-2--2-2--2-2-2--2--4-4--4-4--4-4--4-4--5-5--5-5--5-5-5-------------------|
G|----------------------2-2--2-2--2-2--2-2--3-3--3-3--3-3-3--5-5-5--4-4-4-4-4-|
D|-----------------------------------------------------------3-3-3--2-2-2-2-2-|
                                                                              |
Chorus: Guitar 2 (Distorted)                                                  |
D|--15------14------------------------------15------14------------------------|
A|-------------------15--------------------------------------15-----17--------|
F|----------------------------------------------------------------------------|
C|----------------------------------------------------------------------------|
G|----------------------------------------------------------------------------|
D|----------------------------------------------------------------------------|

Chorus: Guitar 1 (Distorted)
D|----------------------------------------------------------------------------|
A|----------------------------------------------------------------------------|
F|--4-4--4-4--4-4-4--4--------------------------------------------------------|
C|--2-2--2-2--2-2-2--2--4-4--4-4--4-4--4-4--5-5--5-5--5-5-5-------------------|
G|----------------------2-2--2-2--2-2--2-2--3-3--3-3--3-3-3--5-5-5--4-4-4-4-4-|
D|-----------------------------------------------------------3-3-3--2-2-2-2-2-|
                                                                              |
Chorus: Guitar 2 (Distorted)                                                  |
D|--15------14----------------------------------------------------------------|
A|-------------------15-------------------------------------------------------|
F|------------------------------------------16--------------------------------|
C|----------------------------------------------------------------------------|
G|----------------------------------------------------------------------------|
D|----------------------------------------------------------------------------|

Post Chorus: Guitar 1 (Distorted)
D|----------------------------------------------------------------------------|
A|----------------------------------------------------------------------------|
F|----------------------------------------------------------------------------|
C|--7--5--5-5-5--5--4--4-4-4--------------------------------------------------|
G|--5--3--3-3-3--3--2--2-2-2--------------------------------------------------|
D|----------------------------12*-11*-10*-9*-8*-7*-6*-5*-4*-3*-2*-1*--1*-2*-3*|
                                                                              |
Post Chorus: Guitar 2 (Distorted)                                             |
D|----------------------------------------------------------------------------|
A|----------------------------------------------------------------------------|
F|----------------------------------------------------------------------------|
C|--7--5--5-5-5--5--4--4-4-4--2--------------------------------2---2----2-2---|
G|--5--3--3-3-3--3--2--2-2-2--2--------------------------------2---2----2-2---|
D|----------------------------0--------------------------------0---0----0-0---|

Bridge: Guitar 1 (Distorted) PLAY BRIDGE 2 TIMES
D|----------------------------------------------------------------------------|
A|----------------------------------------------------------------------------|
F|----------------------------------------------------------------------------|
C|--2-2-2-2--2-2-2-2--2-2-2-2--2-2-2-2--5-5-5-5--5-5-5-5--4-4-4-4--4-4-4-4----|
G|--2-2-2-2--2-2-2-2--2-2-2-2--2-2-2-2--5-5-5-5--5-5-5-5--4-4-4-4--4-4-4-4----|
D|--0-0-0-0--0-0-0-0--0-0-0-0--0-0-0-0--3-3-3-3--3-3-3-3--2-2-2-2--2-2-2-2----|
                                                                              |
Bridge: Guitar 2 (Distorted)                                                  |
D|----------------------------------------------------------------------------|
A|--12121212-12121212-12121212-12121212-13131313-13131313-15151515-15151515---|
F|----------------------------------------------------------------------------|
C|----------------------------------------------------------------------------|
G|----------------------------------------------------------------------------|
D|----------------------------------------------------------------------------|

Bridge: Guitar 1 (Distorted)
D|----------------------------------------------------------------------------|
A|----------------------------------------------------------------------------|
F|----------------------------------------------------------------------------|
C|--2-2-2-2--2-2-2-2--2-2-2-2--2-2-2-2--5-5-5-5--5-5-5-5--4-4-4-4--4-4-4-4----|
G|--2-2-2-2--2-2-2-2--2-2-2-2--2-2-2-2--5-5-5-5--5-5-5-5--4-4-4-4--4-4-4-4----|
D|--0-0-0-0--0-0-0-0--0-0-0-0--0-0-0-0--3-3-3-3--3-3-3-3--2-2-2-2--2-2-2-2----|
                                                                              |
Bridge: Guitar 2 (Distorted)                                                  |
D|----------------------------------------------------------------------------|
A|--12121212-12121212-12121212-12121212-13131313-13131313-10101010-10101010---|
F|----------------------------------------------------------------------------|
C|----------------------------------------------------------------------------|
G|----------------------------------------------------------------------------|
D|----------------------------------------------------------------------------|

Outro: Guitar 1 (Distorted)
D|----------------------------------------------------------------------------|
A|----------------------------------------------------------------------------|
F|----------------------------------------------------------------------------|
C|--2-------------------------------------------------------------------------|
G|--2-------------------------------------------------------------------------|
D|--0-------------------------------------------------------------------------|
                                                                              |
Outro: Guitar 2 (Distorted)                                                   |
D|----------------------------------------------------------------------------|
A|--10------------------------------------------------------------------------|
F|----------------------------------------------------------------------------|
C|----------------------------------------------------------------------------|
G|----------------------------------------------------------------------------|
D|----------------------------------------------------------------------------|

Finished

Tap to rate this tab
 
# A B C D E F G H I J K L M N O P Q R S T U V W X Y Z