Song name
# A B C D E F G H I J K L M N O P Q R S T U V W X Y Z

Dust And Blood - Beyond Repair tab

Dust & Blood
Beyond Repair
Tabbed by U B the band
Tuning C G C F A D

Legend
/-slide up        \-slide down        b-bend        ()-bend to        r-return


Intro: Guitars 1 & 2 (Distorted) PLAY 2 TIMES
D|----------------------------------------------------------------------------|
A|----------------------------------------------------------------------------|
F|--7------7------7------7------7---7----7------7------7------7------7---7----|
C|--x-0-0--x-0-0--x-0-0--x-0-0--x-0-x-0--x-0-0--x-0-0--x-0-0--x-0-0--x-0-x-0--|
G|--5-0-0--5-0-0--5-0-0--5-0-0--5-0-5-0--5-0-0--5-0-0--5-0-0--5-0-0--5-0-5-0--|
C|----0-0----0-0----0-0----0-0----0---0----0-0----0-0----0-0----0-0----0---0--|

Verse 1: Guitars 1 & 2 (Distorted) PLAY 3 TIMES
D|----------------------------------------------------------------------------|
A|----------------------------------------------------------------------------|
F|--7-7-7-7-7-7-7-7/9-9-9-9-9-9-9-9/1010101010101010\9-9-9-9-9-9-9-9----------|
C|--x-x-x-x-x-x-x-x-x-x-x-x-x-x-x-x-x-x-x-x-x-x-x-x--x-x-x-x-x-x-x-x----------|
G|--5-5-5-5-5-5-5-5/7-7-7-7-7-7-7-7/8-8-8-8-8-8-8-8-\7-7-7-7-7-7-7-7----------|
C|----------------------------------------------------------------------------|

Verse 1: Guitars 1 & 2 (Distorted) PLAY 1 TIME
D|----------------------------------------------------------------------------|
A|----------------------------------------------------------------------------|
F|--7-7-7-7-7-7-7-7/9-9-9-9-9-9-9-9/1010101010101010\9-9-9-9-9-9-9-9--3-----5-|
C|--x-x-x-x-x-x-x-x-x-x-x-x-x-x-x-x-x-x-x-x-x-x-x-x--x-x-x-x-x-x-x-x--x-----x-|
G|--5-5-5-5-5-5-5-5/7-7-7-7-7-7-7-7/8-8-8-8-8-8-8-8-\7-7-7-7-7-7-7-7--1-----3-|
C|----------------------------------------------------------------------------|

Chorus: Guitar 1 (Distorted) PLAY 2 TIMES
D|----------------------------------------------------------------------------|
A|----------------------------------------------------------------------------|
F|--10101010-10101010-10101010-10101010--3-3-3-3--3-3-3-3--5-5-5-5--5-5-5-5---|
C|---x-x-x-x--x-x-x-x--x-x-x-x--x-x-x-x--x-x-x-x--x-x-x-x--x-x-x-x--x-x-x-x---|
G|---8-8-8-8--8-8-8-8--8-8-8-8--8-8-8-8--1-1-1-1--1-1-1-1--3-3-3-3--3-3-3-3---|
C|----------------------------------------------------------------------------|
                                                                              |
Chorus: Guitar 2 (Distorted) PLAY 2 TIMES                                     |
D|----------------------------------------------------------------------------|
A|----------------------------------------------------------------------------|
F|------------5-3------------------------3--------5--------3-2----------------|
C|---3------------------------------------------------------------------------|
G|----------------------------------------------------------------------------|
C|----------------------------------------------------------------------------|

Verse 2: Guitars 1 & 2 (Distorted) PLAY 3 TIMES
D|----------------------------------------------------------------------------|
A|----------------------------------------------------------------------------|
F|--7-7-7-7-7-7-7-7/9-9-9-9-9-9-9-9/1010101010101010\9-9-9-9-9-9-9-9----------|
C|--x-x-x-x-x-x-x-x-x-x-x-x-x-x-x-x-x-x-x-x-x-x-x-x--x-x-x-x-x-x-x-x----------|
G|--5-5-5-5-5-5-5-5/7-7-7-7-7-7-7-7/8-8-8-8-8-8-8-8-\7-7-7-7-7-7-7-7----------|
C|----------------------------------------------------------------------------|

Verse 2: Guitars 1 & 2 (Distorted) PLAY 1 TIME
D|----------------------------------------------------------------------------|
A|----------------------------------------------------------------------------|
F|--7-7-7-7-7-7-7-7/9-9-9-9-9-9-9-9/1010101010101010\9-9-9-9-9-9-9-9--3-----5-|
C|--x-x-x-x-x-x-x-x-x-x-x-x-x-x-x-x-x-x-x-x-x-x-x-x--x-x-x-x-x-x-x-x--x-----x-|
G|--5-5-5-5-5-5-5-5/7-7-7-7-7-7-7-7/8-8-8-8-8-8-8-8-\7-7-7-7-7-7-7-7--1-----3-|
C|----------------------------------------------------------------------------|
Chorus: Guitar 1 (Distorted) PLAY 4 TIMES
D|----------------------------------------------------------------------------|
A|----------------------------------------------------------------------------|
F|--10101010-10101010-10101010-10101010--3-3-3-3--3-3-3-3--5-5-5-5--5-5-5-5---|
C|---x-x-x-x--x-x-x-x--x-x-x-x--x-x-x-x--x-x-x-x--x-x-x-x--x-x-x-x--x-x-x-x---|
G|---8-8-8-8--8-8-8-8--8-8-8-8--8-8-8-8--1-1-1-1--1-1-1-1--3-3-3-3--3-3-3-3---|
C|----------------------------------------------------------------------------|
                                                                              |
Chorus: Guitar 2 (Distorted) PLAY 4 TIMES                                     |
D|----------------------------------------------------------------------------|
A|----------------------------------------------------------------------------|
F|------------5-3------------------------3--------5--------3-2----------------|
C|---3------------------------------------------------------------------------|
G|----------------------------------------------------------------------------|
C|----------------------------------------------------------------------------|

Bridge: Guitar 1 (Distorted) PLAY 4 TIMES
D|----------------------------------------------------------------------------|
A|----------------------------------------------------------------------------|
F|----------7--7--------7-----------------------------------------------------|
C|--0-------x--x----0---x--0--5--5-5-5--5---7--7-7--7---8--8-8-8--10--10-10---|
G|--0-------5--5----0---5--0--5--5-5-5--5---7--7-7--7---8--8-8-8--10--10-10---|
C|--0---------------0------0--5--5-5-5--5---7--7-7--7---8--8-8-8--10--10-10---|
                                                                              |
Bridge: Guitar 2 (Distorted)                                                  |
D|----------------------------------------------------------------------------|
A|--17-b-(18)----------------14----b---(15)-----------------------------------|
F|----------------------------------------------------------------------------|
C|----------------------------------------------------------------------------|
G|----------------------------------------------------------------------------|
C|----------------------------------------------------------------------------|

Bridge: Guitar 1 (Distorted) PLAY 4 TIMES
D|----------------------------------------------------------------------------|
A|----------------------------------------------------------------------------|
F|--7------7------7------7------7---7---33333333-55555555-33333333-5555-6666--|
C|--x-0-0--x-0-0--x-0-0--x-0-0--x-0-x-0-xxxxxxxx-xxxxxxxx-xxxxxxxx-xxxx-xxxx--|
G|--5-0-0--5-0-0--5-0-0--5-0-0--5-0-5-0-11111111-33333333-11111111-3333-4444--|
C|----0-0----0-0----0-0----0-0----0---0---------------------------------------|
                                                                              |
Bridge: Guitar 2 (Distorted)                                                  |
D|----------------------------------------------------------------------------|
A|--17-b-(18)--------------------------(18)----r-17---------------------------|
F|----------------------------------------------------------------------------|
C|----------------------------------------------------------------------------|
G|----------------------------------------------------------------------------|
C|----------------------------------------------------------------------------|

Verse 3: Guitars 1 & 2 (Distorted) PLAY 2 TIMES
D|----------------------------------------------------------------------------|
A|----------------------------------------------------------------------------|
F|--7--------------/9--------------/10--------------\9------------------------|
C|--x---------------x---------------x----------------x------------------------|
G|--5--------------/7--------------/8---------------\7------------------------|
C|----------------------------------------------------------------------------|

Verse 3: Guitars 1 & 2 (Distorted) PLAY 1 TIME
D|----------------------------------------------------------------------------|
A|----------------------------------------------------------------------------|
F|--7-7-7-7-7-7-7-7/9-9-9-9-9-9-9-9/1010101010101010\9-9-9-9-9-9-9-9----------|
C|--x-x-x-x-x-x-x-x-x-x-x-x-x-x-x-x-x-x-x-x-x-x-x-x--x-x-x-x-x-x-x-x----------|
G|--5-5-5-5-5-5-5-5/7-7-7-7-7-7-7-7/8-8-8-8-8-8-8-8-\7-7-7-7-7-7-7-7----------|
C|----------------------------------------------------------------------------|

Verse 3: Guitars 1 & 2 (Distorted) PLAY 1 TIME
D|----------------------------------------------------------------------------|
A|----------------------------------------------------------------------------|
F|--7-7-7-7-7-7-7-7/9-9-9-9-9-9-9-9/1010101010101010\9-9-9-9-9-9-9-9--3-----5-|
C|--x-x-x-x-x-x-x-x-x-x-x-x-x-x-x-x-x-x-x-x-x-x-x-x--x-x-x-x-x-x-x-x--x-----x-|
G|--5-5-5-5-5-5-5-5/7-7-7-7-7-7-7-7/8-8-8-8-8-8-8-8-\7-7-7-7-7-7-7-7--1-----3-|
C|----------------------------------------------------------------------------|

Chorus: Guitar 1 (Distorted) PLAY 4 TIMES
D|----------------------------------------------------------------------------|
A|----------------------------------------------------------------------------|
F|--10101010-10101010-10101010-10101010--3-3-3-3--3-3-3-3--5-5-5-5--5-5-5-5---|
C|---x-x-x-x--x-x-x-x--x-x-x-x--x-x-x-x--x-x-x-x--x-x-x-x--x-x-x-x--x-x-x-x---|
G|---8-8-8-8--8-8-8-8--8-8-8-8--8-8-8-8--1-1-1-1--1-1-1-1--3-3-3-3--3-3-3-3---|
C|----------------------------------------------------------------------------|
                                                                              |
Chorus: Guitar 2 (Distorted) PLAY 4 TIMES                                     |
D|----------------------------------------------------------------------------|
A|----------------------------------------------------------------------------|
F|------------5-3------------------------3--------5--------3-2----------------|
C|---3------------------------------------------------------------------------|
G|----------------------------------------------------------------------------|
C|----------------------------------------------------------------------------|

Outro: Guitar 1 (Distorted) PLAY 4 TIMES
D|----------------------------------------------------------------------------|
A|----------------------------------------------------------------------------|
F|----------7--7--------7-----------------------------------------------------|
C|--0-------x--x----0---x--0--5--5-5-5--5---7--7-7--7---8--8-8-8--10--10-10---|
G|--0-------5--5----0---5--0--5--5-5-5--5---7--7-7--7---8--8-8-8--10--10-10---|
C|--0---------------0------0--5--5-5-5--5---7--7-7--7---8--8-8-8--10--10-10---|
                                                                              |
Outro: Guitar 2 (Distorted)                                                   |
D|----------------------------------------------------------------------------|
A|----------------------------------------------------------------------------|
F|--9---------------10--------12------------------------14--------------------|
C|----------------------------------------------------------------------------|
G|----------------------------------------------------------------------------|
C|----------------------------------------------------------------------------|

Outro: Guitar 1 (Distorted) PLAY 1 TIME
D|----------------------------------------------------------------------------|
A|----------------------------------------------------------------------------|
F|----------------------------------------------------------------------------|
C|--0-------------------------------------------------------------------------|
G|--0-------------------------------------------------------------------------|
C|--0-------------------------------------------------------------------------|
                                                                              |
Outro: Guitar 2 (Distorted)                                                   |
D|----------------------------------------------------------------------------|
A|----------------------------------------------------------------------------|
F|--9-------------------------------------------------------------------------|
C|----------------------------------------------------------------------------|
G|----------------------------------------------------------------------------|
C|----------------------------------------------------------------------------|

Finished
Tap to rate this tab
# A B C D E F G H I J K L M N O P Q R S T U V W X Y Z