Guitaretab - guitar tabs
Song name
# A B C D E F G H I J K L M N O P Q R S T U V W X Y Z

Dust And Blood - I Dont Want You To Believe tab

Dust & Blood
I Donít Want You To Believe
Tabbed by U B the band
Tuning C G C F A D

Legend
/-slide up             \-slide down             b-bend             ()-bend to


Intro: Guitar 1 (Distorted) PLAY 2 TIMES
D|----------------------------------------------------------------------------|
A|----------------------------------------------------------------------------|
F|----------------------------------------------------------------------------|
C|--3-----------3-----------5-------5---------------0------0---------0--------|
G|--3-----------3-----------5-------5---------------0------0---------0--------|
C|--3-----------3-----------5-------5---------------0------0---------0--------|
                                                                              |
Intro: Guitar 2 (Distorted)                                                   |
D|----------------------------------------------------------------------------|
A|----------------------------------------------------------------------------|
F|--------------5----5--------------7----------------------9---------7--------|
C|--3--3--3--3-------------/5-----------------------0---------10--------9-----|
G|----------------------------------------------------------------------------|
C|----------------------------------------------------------------------------|

Verse 1: Guitar 1 (Distorted & Palm Muted) PLAY 4 TIMES *4th time let off P.M.*
D|----------------------------------------------------------------------------|
A|----------------------------------------------------------------------------|
F|--------------9\------------------------------------------------------------|
C|--7-7-7-7-7-7-7----3-3-3-3--3-3-3-3--0-0-0-0--0-0-0-0--0-0-0-0--0-0-0-0-----|
G|--7-7-7-7-7-7-7----3-3-3-3--3-3-3-3--0-0-0-0--0-0-0-0--0-0-0-0--0-0-0-0-----|
C|--7-7-7-7-7-7------3-3-3-3--3-3-3-3--0-0-0-0--0-0-0-0--0-0-0-0--0-0-0-0-----|

Chorus: Guitar 1 (Distorted)
D|----------------------------------------------------------------------------|
A|----------------------------------------------------------------------------|
F|----------------------------------------------------------------------------|
C|--3-----------3-----------5-------5---------------0------0---------0--------|
G|--3-----------3-----------5-------5---------------0------0---------0--------|
C|--3-----------3-----------5-------5---------------0------0---------0--------|
                                                                              |
Chorus: Guitar 2 (Distorted)                                                  |
D|----------------------------------------------------------------------------|
A|----------------------------------------------------------------------------|
F|--------------5----5--------------7----------------------9---------7--------|
C|--3--3--3--3-------------/5-----------------------0---------10--------9-----|
G|----------------------------------------------------------------------------|
C|----------------------------------------------------------------------------|

Chorus: Guitar 1 (Distorted)
D|----------------------------------------------------------------------------|
A|----------------------------------------------------------------------------|
F|----------------------------------------------------------------------------|
C|--3-----------3-----------5-------5---------------0-------------------------|
G|--3-----------3-----------5-------5---------------0-------------------------|
C|--3-----------3-----------5-------5---------------0-------------------------|
                                                                              |
Chorus: Guitar 2 (Distorted)                                                  |
D|----------------------------------------------------------------------------|
A|----------------------------------------------------------------------------|
F|--------------5----5--------------7----------------------9---------7b---(8)-|
C|--3--3--3--3-------------/5-----------------------0---------10--------------|
G|----------------------------------------------------------------------------|
C|----------------------------------------------------------------------------|

Verse 2: Guitar 1 (Distorted & Palm Muted) PLAY 4 TIMES *4th time let off P.M.*
D|----------------------------------------------------------------------------|
A|----------------------------------------------------------------------------|
F|--------------9\------------------------------------------------------------|
C|--7-7-7-7-7-7-7----3-3-3-3--3-3-3-3--0-0-0-0--0-0-0-0--0-0-0-0--0-0-0-0-----|
G|--7-7-7-7-7-7-7----3-3-3-3--3-3-3-3--0-0-0-0--0-0-0-0--0-0-0-0--0-0-0-0-----|
C|--7-7-7-7-7-7------3-3-3-3--3-3-3-3--0-0-0-0--0-0-0-0--0-0-0-0--0-0-0-0-----|

Chorus: Guitar 1 (Distorted) PLAY 3 TIMES
D|----------------------------------------------------------------------------|
A|----------------------------------------------------------------------------|
F|----------------------------------------------------------------------------|
C|--3-----------3-----------5-------5---------------0------0---------0--------|
G|--3-----------3-----------5-------5---------------0------0---------0--------|
C|--3-----------3-----------5-------5---------------0------0---------0--------|
                                                                              |
Chorus: Guitar 2 (Distorted)                                                  |
D|----------------------------------------------------------------------------|
A|----------------------------------------------------------------------------|
F|--------------5----5--------------7----------------------9---------7--------|
C|--3--3--3--3-------------/5-----------------------0---------10--------9-----|
G|----------------------------------------------------------------------------|
C|----------------------------------------------------------------------------|

Chorus: Guitar 1 (Distorted) PLAY 1 TIME
D|----------------------------------------------------------------------------|
A|----------------------------------------------------------------------------|
F|----------------------------------------------------------------------------|
C|--3-----------3-----------5-------5---------------0-------------------------|
G|--3-----------3-----------5-------5---------------0-------------------------|
C|--3-----------3-----------5-------5---------------0-------------------------|
                                                                              |
Chorus: Guitar 2 (Distorted)                                                  |
D|----------------------------------------------------------------------------|
A|----------------------------------------------------------------------------|
F|--------------5----5--------------7-----------------------------------------|
C|--3--3--3--3-------------/5-------------------------------------------------|
G|----------------------------------------------------------------------------|
C|----------------------------------------------------------------------------|

Bridge: Guitar 2 (Mid Distortion) PLAY 2 TIMES
D|----------------------------------------------------------------------------|
A|------------1-----------------0----3----------------------------------------|
F|-------2----------------------------------------9-----------10--------------|
C|-------------------------3----------------------x------------x--------------|
G|--0---------------------------------------------7------------8--------------|
C|----------------------------------------------------------------------------|

Bridge: Guitar 2 (Mid Distortion) PLAY 1 TIME
D|----------------------------------------------------------------------------|
A|------------1-----------------0----3----------------------------------------|
F|-------2----------------------------------------9-----9-----10-----10-------|
C|-------------------------3----------------------x-----x------x------x-------|
G|--0---------------------------------------------7-----7------8------8-------|
C|----------------------------------------------------------------------------|

Bridge: Guitar 2 (Mid Distortion) PLAY 1 TIME
D|----------------------------------------------------------------------------|
A|----------------------------------------------------------------------------|
F|--12--12-b-12--12--12-b-12--12--12--12-b(13)-12--12--12--12--12--12---------|
C|---x---x----x---x---x----x---x---x---x----x---x---x---x---x---x---x---------|
G|--10--10-b-10--10--10-b-10--10--10--10-b(11)-10--10--10--10--10--10---------|
C|----------------------------------------------------------------------------|
[ Tab from: http://www.guitaretab.com/d/dust-and-blood/186506.html ]
Bridge: Guitar 1 (Distorted) PLAY 1 TIME
D|----------------------------------------------------------------------------|
A|----------------------------------------------------------------------------|
F|----------------------------------------------------------------------------|
C|--3-----------3-----------5-------5---------------0------0---------0--------|
G|--3-----------3-----------5-------5---------------0------0---------0--------|
C|--3-----------3-----------5-------5---------------0------0---------0--------|
                                                                              |
Bridge: Guitar 2 (Distorted) PLAY 1 TIME                                      |
D|----------------------------------------------------------------------------|
A|--22----22----------------22----22------------------------------------------|
F|--------------19----------------------19--------------19----------19--------|
C|--------------------22----------------------22----22------22--21-------22---|
G|----------------------------------------------------------------------------|
C|----------------------------------------------------------------------------|

Bridge: Guitar 1 (Distorted) PLAY 1 TIME
D|----------------------------------------------------------------------------|
A|----------------------------------------------------------------------------|
F|----------------------------------------------------------------------------|
C|--3-----------3-----------5-------5---------------0------0---------0--------|
G|--3-----------3-----------5-------5---------------0------0---------0--------|
C|--3-----------3-----------5-------5---------------0------0---------0--------|
                                                                              |
Bridge: Guitar 2 (Distorted) PLAY 1 TIME                                      |
D|----------------------------------------------------------------------------|
A|--22----22------------------------------------------------------------------|
F|--------------19------------------------------------------------------------|
C|--------------------22----22----21----19-b------(20)------------------------|
G|----------------------------------------------------------------------------|
C|----------------------------------------------------------------------------|

Bridge: Guitar 1 (Distorted) PLAY 1 TIME
D|----------------------------------------------------------------------------|
A|----------------------------------------------------------------------------|
F|----------------------------------------------------------------------------|
C|--3-----------3-----------5-------5---------------0------0---------0--------|
G|--3-----------3-----------5-------5---------------0------0---------0--------|
C|--3-----------3-----------5-------5---------------0------0---------0--------|
                                                                              |
Bridge: Guitar 2 (Distorted) PLAY 1 TIME                                      |
D|----------------------------------------------------------------------------|
A|--22----22----------------22----22------------------------------------------|
F|--------------19----------------------19--------------19----------19--------|
C|--------------------22----------------------22----22------22--21-------22---|
G|----------------------------------------------------------------------------|
C|----------------------------------------------------------------------------|

Bridge: Guitar 1 (Distorted) PLAY 1 TIME
D|----------------------------------------------------------------------------|
A|----------------------------------------------------------------------------|
F|--------------------------------------------7-----7-----7-----7-----7---7---|
C|--3-----------3-----------5-------5---------x-0-0-x-0-0-x-0-0-x-0-0-x-0-x-0-|
G|--3-----------3-----------5-------5---------5-0-0-5-0-0-5-0-0-5-0-0-5-0-5-0-|
C|--3-----------3-----------5-------5-----------0-0---0-0---0-0---0-0---0---0-|
                                                                              |
Bridge: Guitar 2 (Distorted) PLAY 1 TIME                                      |
D|----------------------------------------------------------------------------|
A|--22----22------------------------------------------------------------------|
F|--------------19------------------------------------------------------------|
C|--------------------22----22----------------22-------------(23)-------------|
G|----------------------------------------------------------------------------|
C|----------------------------------------------------------------------------|

Chorus: Guitar 1 (Distorted) PLAY 2 TIMES
D|----------------------------------------------------------------------------|
A|----------------------------------------------------------------------------|
F|----------------------------------------------------------------------------|
C|--3-----------3-----------5-------5---------------0------0---------0--------|
G|--3-----------3-----------5-------5---------------0------0---------0--------|
C|--3-----------3-----------5-------5---------------0------0---------0--------|
                                                                              |
Chorus: Guitar 2 (Distorted) PLAY 2 TIMES                                     |
D|----------------------------------------------------------------------------|
A|----------------------------------------------------------------------------|
F|--------------5----5--------------7----------------------9---------7--------|
C|--3--3--3--3-------------/5-----------------------0---------10--------9-----|
G|----------------------------------------------------------------------------|
C|----------------------------------------------------------------------------|

Chorus: Guitar 1 (Distorted) PLAY 1 TIME
D|----------------------------------------------------------------------------|
A|----------------------------------------------------------------------------|
F|----------------------------------------------------------------------------|
C|--3-----------3-----------5-------5---------------0------0---------0--------|
G|--3-----------3-----------5-------5---------------0------0---------0--------|
C|--3-----------3-----------5-------5---------------0------0---------0--------|
                                                                              |
Chorus: Guitar 2 (Distorted) PLAY 1 TIME                                      |
D|----------------------------------------------------------------------------|
A|----------------------------------------------------------------------------|
F|--------------5----5--------------7----------------------9---------7--------|
C|--3--3--3--3-------------/5-----------------------0---------10--------9-----|
G|----------------------------------------------------------------------------|
C|----------------------------------------------------------------------------|
                                                                              |
Chorus: Guitar 3 (Distorted) PLAY 1 TIME                                      |
D|--------------------------------------------------20----19------------------|
A|--22----------------------------------------------------------22------------|
F|--------19------------------------------------------------------------------|
C|--------------22------------------------------------------------------------|
G|----------------------------------------------------------------------------|
C|----------------------------------------------------------------------------|

Chorus: Guitar 1 (Distorted) PLAY 1 TIME
D|----------------------------------------------------------------------------|
A|----------------------------------------------------------------------------|
F|----------------------------------------------------------------------------|
C|--3-----------3-----------5-------5---------------0-------------------------|
G|--3-----------3-----------5-------5---------------0-------------------------|
C|--3-----------3-----------5-------5---------------0-------------------------|
                                                                              |
Chorus: Guitar 2 (Distorted) PLAY 1 TIME                                      |
D|----------------------------------------------------------------------------|
A|----------------------------------------------------------------------------|
F|--------------5----5--------------7----------------------9---------7--------|
C|--3--3--3--3-------------/5-----------------------0---------10--------9-----|
G|----------------------------------------------------------------------------|
C|----------------------------------------------------------------------------|
                                                                              |
Chorus: Guitar 3 (Distorted) PLAY 1 TIME                                      |
D|----------------------------------------------------------------------------|
A|--22------------------------------------------------------------------------|
F|--------19------------------------------------------------------------------|
C|--------------22-------------------21-------(22)----------------------------|
G|----------------------------------------------------------------------------|
C|----------------------------------------------------------------------------|

Finished
Related for I Dont Want You To Believe tab