Guitaretab - guitar tabs
Song name
# A B C D E F G H I J K L M N O P Q R S T U V W X Y Z

Dust And Blood - Floating Face Down tab

Dust & Blood
Floating Face Down
Tabbed by U B the band
Tuning C G C F A D


Verse 1: Guitar 1 (Distorted & Palm Muted) PLAY GUITAR 1s VERSE TWO TIMES
D|----------------------------------------------------------------------------|
A|----------------------------------------------------------------------------|
F|----------------------------------------------------------------------------|
C|----------------------------------------------------------------------------|
G|--0--0--0--0--0--0--0--0--0--0--0--0--0--0--0--0--0--0--0--0--0--0--0--0----|
C|--0--0--0--0--0--0--0--0--0--0--0--0--0--0--0--0--0--0--0--0--0--0--0--0----|
                                                                              |
Verse 1: Guitar 2 (Clean) PLAY GUITAR 2s VERSE 2ND TIME AROUND               |
D|----------------------------------------------------------------------------|
A|--------------10----8-----------------------------10----8-------------------|
F|--7-----7-----------------------------7-----7-------------------------------|
C|----------------------------------------------------------------------------|
G|----------------------------------------------------------------------------|
C|----------------------------------------------------------------------------|

Verse 1: Guitar 1 (Distorted & Palm Muted)
D|----------------------------------------------------------------------------|
A|----------------------------------------------------------------------------|
F|----------------------------------------------------------------------------|
C|----------------------------------------------------------------------------|
G|--1--1--1--1--1--1--1--1--1--1--1--1--1--1--1--1--1--1--1--1--1--1--1--1----|
C|--1--1--1--1--1--1--1--1--1--1--1--1--1--1--1--1--1--1--1--1--1--1--1--1----|
                                                                              |
Verse 1: Guitar 2 (Clean) PLAY GUITAR 2s VERSE 2ND TIME AROUND               |
D|----------------------------------------------------------------------------|
A|--------------11----10----------------------------11----10------------------|
F|--8-----8-----------------------------8-----8-------------------------------|
C|----------------------------------------------------------------------------|
G|----------------------------------------------------------------------------|
C|----------------------------------------------------------------------------|

Verse 1: Guitar 1 (Distorted & Palm Muted)
D|----------------------------------------------------------------------------|
A|----------------------------------------------------------------------------|
F|----------------------------------------------------------------------------|
C|----------------------------------------------------------------------------|
G|--0--0--0--0--0--0--0--0--0--0--0--0--0--0--0--0--0--0--0--0--0--0--0--0----|
C|--0--0--0--0--0--0--0--0--0--0--0--0--0--0--0--0--0--0--0--0--0--0--0--0----|
                                                                              |
Verse 1: Guitar 2 (Clean) PLAY GUITAR 2s VERSE 2ND TIME AROUND               |
D|----------------------------------------------------------------------------|
A|--------------10----8-----------------------------10----8-------------------|
F|--7-----7-----------------------------7-----7-------------------------------|
C|----------------------------------------------------------------------------|
G|----------------------------------------------------------------------------|
C|----------------------------------------------------------------------------|

Verse 1: Guitar 1 (Distorted & Palm Muted)
D|----------------------------------------------------------------------------|
A|----------------------------------------------------------------------------|
F|----------------------------------------------------------------------------|
C|----------------------------------------------------------------------------|
G|--1--1--1--1--1--1--1--1--1--1--1--1--1--1--1--1--1--1--1--1--1--1--1--1----|
C|--1--1--1--1--1--1--1--1--1--1--1--1--1--1--1--1--1--1--1--1--1--1--1--1----|
                                                                              |
Verse 1: Guitar 2 (Clean) PLAY GUITAR 2s VERSE 2ND TIME AROUND               |
D|----------------------------------------------------------------------------|
A|--------------11----10----------------------------11----10------------------|
F|--8-----8-----------------------------8-----8-------------------------------|
C|----------------------------------------------------------------------------|
G|----------------------------------------------------------------------------|
C|----------------------------------------------------------------------------|

Verse 1: Guitar 1 (Distorted & Palm Muted)
D|----------------------------------------------------------------------------|
A|----------------------------------------------------------------------------|
F|----------------------------------------------------------------------------|
C|----------------------------------------------------------------------------|
G|--3--3--3--3--3--3--3--3--3--3--3--3--4--4--4--4--4--4--4--4--4--4--4--4----|
C|--3--3--3--3--3--3--3--3--3--3--3--3--4--4--4--4--4--4--4--4--4--4--4--4----|
                                                                              |
Verse 1: Guitar 2 (Clean) PLAY GUITAR 2s VERSE 2ND TIME AROUND               |
D|----------------------------------------------------------------------------|
A|--------------11----13----------------------------13----15------------------|
F|--10----10----------------------------11----11------------------------------|
C|----------------------------------------------------------------------------|
G|----------------------------------------------------------------------------|
C|----------------------------------------------------------------------------|

Chorus: Guitars 1 & 2 (Distorted)
D|----------------------------------------------------------------------------|
A|--8--8--8--8--8--8--8--8--8--8--8--8--8--8--8--8--8--8--8--8--8--8--8--8----|
F|--7--7--7--7--7--7--7--7--7--7--7--7--7--7--7--7--7--7--7--7--7--7--7--7----|
C|--5--5--5--5--5--5--5--5--5--5--5--5--5--5--5--5--5--5--5--5--5--5--5--5----|
G|----------------------------------------------------------------------------|
C|----------------------------------------------------------------------------|

Chorus: Guitars 1 & 2 (Distorted)
D|----------------------------------------------------------------------------|
A|--6--6--6--6--6--6--6--6--6--6--6--6--10-10-10-10-10-10-11-11-11-11-11-11---|
F|--5--5--5--5--5--5--5--5--5--5--5--5---9--9--9--9--9--9-10-10-10-10-10-10---|
C|--3--3--3--3--3--3--3--3--3--3--3--3---7--7--7--7--7--7--8--8--8--8--8--8---|
G|----------------------------------------------------------------------------|
C|----------------------------------------------------------------------------|

Chorus: Guitars 1 & 2 (Distorted)
D|----------------------------------------------------------------------------|
A|--8--8--8--8--8--8--8--8--8--8--8--8--8--8--8--8--8--8--8--8--8--8--8--8----|
F|--7--7--7--7--7--7--7--7--7--7--7--7--7--7--7--7--7--7--7--7--7--7--7--7----|
C|--5--5--5--5--5--5--5--5--5--5--5--5--5--5--5--5--5--5--5--5--5--5--5--5----|
G|----------------------------------------------------------------------------|
C|----------------------------------------------------------------------------|

Chorus: Guitars 1 & 2 (Distorted)
D|----------------------------------------------------------------------------|
A|--6--6--6--6--6--6--6--6--6--6--6--6--10-10-10-10-10-10-10-10-10-10-10-10---|
F|--5--5--5--5--5--5--5--5--5--5--5--5---9--9--9--9--9--9--9--9--9--9--9--9---|
C|--3--3--3--3--3--3--3--3--3--3--3--3---7--7--7--7--7--7--7--7--7--7--7--7---|
G|----------------------------------------------------------------------------|
C|----------------------------------------------------------------------------|

Post Chorus: Guitars 1 & 2 (Distorted)
D|----------------------------------------------------------------------------|
A|--11---11---11---11----11---11---11---11----11---11---11---11---------------|
F|--10---10---10---10----10---10---10---10----10---10---10---10---------------|
C|---8----8----8----8-----8----8----8----8-----8----8----8----8---------------|
G|----------------------------------------------------------------------------|
C|----------------------------------------------------------------------------|

Verse 2: Guitar 1 (Distorted & Palm Muted) PLAY GUITAR 1s VERSE TWO TIMES
D|----------------------------------------------------------------------------|
A|----------------------------------------------------------------------------|
F|----------------------------------------------------------------------------|
C|----------------------------------------------------------------------------|
G|--0--0--0--0--0--0--0--0--0--0--0--0--0--0--0--0--0--0--0--0--0--0--0--0----|
C|--0--0--0--0--0--0--0--0--0--0--0--0--0--0--0--0--0--0--0--0--0--0--0--0----|
                                                                              |
Verse 2: Guitar 2 (Clean) PLAY GUITAR 2s VERSE 2ND TIME AROUND               |
D|----------------------------------------------------------------------------|
A|--------------10----8-----------------------------10----8-------------------|
F|--7-----7-----------------------------7-----7-------------------------------|
C|----------------------------------------------------------------------------|
G|----------------------------------------------------------------------------|
C|----------------------------------------------------------------------------|
[ Tab from: http://www.guitaretab.com/d/dust-and-blood/186560.html ]
Verse 2: Guitar 1 (Distorted & Palm Muted)
D|----------------------------------------------------------------------------|
A|----------------------------------------------------------------------------|
F|----------------------------------------------------------------------------|
C|----------------------------------------------------------------------------|
G|--1--1--1--1--1--1--1--1--1--1--1--1--1--1--1--1--1--1--1--1--1--1--1--1----|
C|--1--1--1--1--1--1--1--1--1--1--1--1--1--1--1--1--1--1--1--1--1--1--1--1----|
                                                                              |
Verse 2: Guitar 2 (Clean) PLAY GUITAR 2s VERSE 2ND TIME AROUND               |
D|----------------------------------------------------------------------------|
A|--------------11----10----------------------------11----10------------------|
F|--8-----8-----------------------------8-----8-------------------------------|
C|----------------------------------------------------------------------------|
G|----------------------------------------------------------------------------|
C|----------------------------------------------------------------------------|

Verse 2: Guitar 1 (Distorted & Palm Muted)
D|----------------------------------------------------------------------------|
A|----------------------------------------------------------------------------|
F|----------------------------------------------------------------------------|
C|----------------------------------------------------------------------------|
G|--0--0--0--0--0--0--0--0--0--0--0--0--0--0--0--0--0--0--0--0--0--0--0--0----|
C|--0--0--0--0--0--0--0--0--0--0--0--0--0--0--0--0--0--0--0--0--0--0--0--0----|
                                                                              |
Verse 2: Guitar 2 (Clean) PLAY GUITAR 2s VERSE 2ND TIME AROUND               |
D|----------------------------------------------------------------------------|
A|--------------10----8-----------------------------10----8-------------------|
F|--7-----7-----------------------------7-----7-------------------------------|
C|----------------------------------------------------------------------------|
G|----------------------------------------------------------------------------|
C|----------------------------------------------------------------------------|

Verse 2: Guitar 1 (Distorted & Palm Muted)
D|----------------------------------------------------------------------------|
A|----------------------------------------------------------------------------|
F|----------------------------------------------------------------------------|
C|----------------------------------------------------------------------------|
G|--1--1--1--1--1--1--1--1--1--1--1--1--1--1--1--1--1--1--1--1--1--1--1--1----|
C|--1--1--1--1--1--1--1--1--1--1--1--1--1--1--1--1--1--1--1--1--1--1--1--1----|
                                                                              |
Verse 2: Guitar 2 (Clean) PLAY GUITAR 2s VERSE 2ND TIME AROUND               |
D|----------------------------------------------------------------------------|
A|--------------11----10----------------------------11----10------------------|
F|--8-----8-----------------------------8-----8-------------------------------|
C|----------------------------------------------------------------------------|
G|----------------------------------------------------------------------------|
C|----------------------------------------------------------------------------|

Verse 2: Guitar 1 (Distorted & Palm Muted)
D|----------------------------------------------------------------------------|
A|----------------------------------------------------------------------------|
F|----------------------------------------------------------------------------|
C|----------------------------------------------------------------------------|
G|--3--3--3--3--3--3--3--3--3--3--3--3--4--4--4--4--4--4--4--4--4--4--4--4----|
C|--3--3--3--3--3--3--3--3--3--3--3--3--4--4--4--4--4--4--4--4--4--4--4--4----|
                                                                              |
Verse 2: Guitar 2 (Clean) PLAY GUITAR 2s VERSE 2ND TIME AROUND               |
D|----------------------------------------------------------------------------|
A|--------------11----13----------------------------13----15------------------|
F|--10----10----------------------------11----11------------------------------|
C|----------------------------------------------------------------------------|
G|----------------------------------------------------------------------------|
C|----------------------------------------------------------------------------|

Chorus: Guitars 1 & 2 (Distorted) PLAY CHORUS FOUR TIMES
D|----------------------------------------------------------------------------|
A|--8--8--8--8--8--8--8--8--8--8--8--8--8--8--8--8--8--8--8--8--8--8--8--8----|
F|--7--7--7--7--7--7--7--7--7--7--7--7--7--7--7--7--7--7--7--7--7--7--7--7----|
C|--5--5--5--5--5--5--5--5--5--5--5--5--5--5--5--5--5--5--5--5--5--5--5--5----|
G|----------------------------------------------------------------------------|
C|----------------------------------------------------------------------------|

Chorus: Guitars 1 & 2 (Distorted)
D|----------------------------------------------------------------------------|
A|--6--6--6--6--6--6--6--6--6--6--6--6--10-10-10-10-10-10-11-11-11-11-11-11---|
F|--5--5--5--5--5--5--5--5--5--5--5--5---9--9--9--9--9--9-10-10-10-10-10-10---|
C|--3--3--3--3--3--3--3--3--3--3--3--3---7--7--7--7--7--7--8--8--8--8--8--8---|
G|----------------------------------------------------------------------------|
C|----------------------------------------------------------------------------|

Bridge: Guitars 1 & 2 (Distorted) PLAY 4 TIMES
D|----------------------------------------------------------------------------|
A|-1010-101010-10-1010-1111-111111-11-1111-1010-101010-10-1010--8-8--8-8-13-13|
F|--9-9--9-9-9--9--9-9-1010-101010-10-1010-1010-101010-10-1010--9-9--9-9-12-12|
C|--7-7--7-7-7--7--7-7--8-8--8-8-8--8--8-8--8-8--8-8-8--8--8-8--7-7--7-7-10-10|
G|----------------------------------------------------------------------------|
C|----------------------------------------------------------------------------|

Verse 3: Guitar 1 (Distorted)
D|----------------------------------------------------------------------------|
A|----------------------------------------------------------------------------|
F|----------------------------------------------------------------------------|
C|--0-------------------------------------------------------------------------|
G|--0-------------------------------------------------------------------------|
C|--0-------------------------------------------------------------------------|

Verse 3: Guitar 1 (Distorted)
D|----------------------------------------------------------------------------|
A|----------------------------------------------------------------------------|
F|----------------------------------------------------------------------------|
C|--1-------------------------------------------------------------------------|
G|--1-------------------------------------------------------------------------|
C|--1-------------------------------------------------------------------------|

Verse 3: Guitar 1 (Distorted)
D|----------------------------------------------------------------------------|
A|----------------------------------------------------------------------------|
F|----------------------------------------------------------------------------|
C|--0-------------------------------------------------------------------------|
G|--0-------------------------------------------------------------------------|
C|--0-------------------------------------------------------------------------|

Verse 3: Guitar 1 (Distorted)
D|----------------------------------------------------------------------------|
A|----------------------------------------------------------------------------|
F|----------------------------------------------------------------------------|
C|--1-------------------------------------------------------------------------|
G|--1-------------------------------------------------------------------------|
C|--1-------------------------------------------------------------------------|

Verse 3: Guitar 1 (Distorted)
D|----------------------------------------------------------------------------|
A|----------------------------------------------------------------------------|
F|----------------------------------------------------------------------------|
C|--3-----------------------------------4-------------------------------------|
G|--3-----------------------------------4-------------------------------------|
C|--3-----------------------------------4-------------------------------------|

Chorus: Guitars 1 & 2 (Distorted) PLAY CHORUS FOUR TIMES
D|----------------------------------------------------------------------------|
A|--8--8--8--8--8--8--8--8--8--8--8--8--8--8--8--8--8--8--8--8--8--8--8--8----|
F|--7--7--7--7--7--7--7--7--7--7--7--7--7--7--7--7--7--7--7--7--7--7--7--7----|
C|--5--5--5--5--5--5--5--5--5--5--5--5--5--5--5--5--5--5--5--5--5--5--5--5----|
G|----------------------------------------------------------------------------|
C|----------------------------------------------------------------------------|

Chorus: Guitars 1 & 2 (Distorted)
D|----------------------------------------------------------------------------|
A|--6--6--6--6--6--6--6--6--6--6--6--6--10-10-10-10-10-10-11-11-11-11-11-11---|
F|--5--5--5--5--5--5--5--5--5--5--5--5---9--9--9--9--9--9-10-10-10-10-10-10---|
C|--3--3--3--3--3--3--3--3--3--3--3--3---7--7--7--7--7--7--8--8--8--8--8--8---|
G|----------------------------------------------------------------------------|
C|----------------------------------------------------------------------------|

Outro: Guitars 1 & 2 (Distorted) PLAY 8 TIMES *FADE OUT 5TH TIME*
D|----------------------------------------------------------------------------|
A|-1010-101010-10-1010-1111-111111-11-1111-1010-101010-10-1010--8-8--8-8-13-13|
F|--9-9--9-9-9--9--9-9-1010-101010-10-1010-1010-101010-10-1010--9-9--9-9-12-12|
C|--7-7--7-7-7--7--7-7--8-8--8-8-8--8--8-8--8-8--8-8-8--8--8-8--7-7--7-7-10-10|
G|----------------------------------------------------------------------------|
C|----------------------------------------------------------------------------|

Finished
Related for Floating Face Down tab
Floating Face Down chords by Dust And Blood