Guitaretab - guitar tabs
Song name
# A B C D E F G H I J K L M N O P Q R S T U V W X Y Z

Dust And Blood - I Cant Stop tab

Dust & Blood (The Drama)
I Canít Stop
Tabbed by U B the band
Tuning C# G# C# F# A# D#


Intro: Guitar 1 (Acoustic) PLAY 2 TIMES
D#|---------------------------------------------------------------------------|
A#|---------------------------------------------------------------------------|
F#|--------2-----------------2-----------------2-------0-------0--------------|
C#|----0-----0---0-------0-----0---0-------0-----0---0---0---0---0---0--------|
G#|---------------------------------------------------------------------------|
C#|--0---0-----0---0---3---3-----3---3---2---2-----2-------2-------2---2------|

Verse 1: Guitar 1 (Acoustic) PLAY 3 TIMES
D#|---------------------------------------------------------------------------|
A#|---------------------------------------------------------------------------|
F#|--------2-----------------2-----------------2-------0-------0--------------|
C#|----0-----0---0-------0-----0---0-------0-----0---0---0---0---0---0--------|
G#|---------------------------------------------------------------------------|
C#|--0---0-----0---0---3---3-----3---3---2---2-----2-------2-------2---2------|

Verse 1: Guitar 1 (Acoustic) PLAY 1 TIME
D#|---------------------------------------------------------------------------|
A#|---------------------------------------------------------------------------|
F#|--------2-----------------2-----------------2-------0-------0--------------|
C#|----0-----0---0-------0-----0---0-------0-----0---0---0---0---0-0-0-0------|
G#|----------------------------------------------------------------0-0-0------|
C#|--0---0-----0---0---3---3-----3---3---2---2-----2-------2------------------|

Chorus: Guitar 1 (Acoustic) PLAY 3 TIMES
D#|-----------------------------------x---------------------------------------|
A#|--3----3-3-------------------------x--1----1-1----------1----1-1-----------|
F#|--2----2-2---2-2-2--5----5-5---5-5-x--2----2-2---2-2-2--2----2-2---2-2-2---|
C#|--0----0-0---0-0-0--3----3-3---3-3-x--2----2-2---2-2-2--2----2-2---2-2-2---|
G#|--0----0-0---0-0-0--3----3-3---3-3-x--0----0-0---0-0-0--0----0-0---0-0-0---|
C#|--0----0-0---0-0-0--3----3-3---3-3-x---------------------------------------|

Chorus: Guitar 1 (Acoustic) PLAY 1 TIME
D#|---------------------------------------------------------------------------|
A#|--3----3-3----------------------------1--------------------------------1---|
F#|--2----2-2---2-2-2--5----5-5---5-5-5--2--------------------------------2---|
C#|--0----0-0---0-0-0--3----3-3---3-3-3--2--------------------------------2---|
G#|--0----0-0---0-0-0--3----3-3---3-3-3--0--------------------------------0---|
C#|--0----0-0---0-0-0--3----3-3---3-3-3---------------------------------------|
[ Tab from: http://www.guitaretab.com/d/dust-and-blood/187132.html ]
Verse 2: Guitar 1 (Acoustic) PLAY 3 TIMES
D#|---------------------------------------------------------------------------|
A#|---------------------------------------------------------------------------|
F#|--------2-----------------2-----------------2-------0-------0--------------|
C#|----0-----0---0-------0-----0---0-------0-----0---0---0---0---0---0--------|
G#|---------------------------------------------------------------------------|
C#|--0---0-----0---0---3---3-----3---3---2---2-----2-------2-------2---2------|

Verse 2: Guitar 1 (Acoustic) PLAY 1 TIME
D#|---------------------------------------------------------------------------|
A#|---------------------------------------------------------------------------|
F#|--------2-----------------2-----------------2-------0-------0--------------|
C#|----0-----0---0-------0-----0---0-------0-----0---0---0---0---0-0-0-0------|
G#|----------------------------------------------------------------0-0-0------|
C#|--0---0-----0---0---3---3-----3---3---2---2-----2-------2------------------|

Chorus: Guitar 1 (Acoustic) PLAY 3 TIMES
D#|-----------------------------------x---------------------------------------|
A#|--3----3-3-------------------------x--1----1-1----------1----1-1-----------|
F#|--2----2-2---2-2-2--5----5-5---5-5-x--2----2-2---2-2-2--2----2-2---2-2-2---|
C#|--0----0-0---0-0-0--3----3-3---3-3-x--2----2-2---2-2-2--2----2-2---2-2-2---|
G#|--0----0-0---0-0-0--3----3-3---3-3-x--0----0-0---0-0-0--0----0-0---0-0-0---|
C#|--0----0-0---0-0-0--3----3-3---3-3-x---------------------------------------|

Chorus: Guitar 1 (Acoustic) PLAY 1 TIME
D#|---------------------------------------------------------------------------|
A#|--3----3-3-------------------------------------------------------------1---|
F#|--2----2-2---2-2-2--5----5-5---5-5-5--2--------------------------------2---|
C#|--0----0-0---0-0-0--3----3-3---3-3-3--2--------------------------------2---|
G#|--0----0-0---0-0-0--3----3-3---3-3-3--0--------------------------------0---|
C#|--0----0-0---0-0-0--3----3-3---3-3-3---------------------------------------|

Chorus: Guitar 1 (Acoustic) PLAY 1 TIME
D#|-----------------------------------0---------------------------------------|
A#|--1--------------------------------1---------------------------------------|
F#|--2--------------------------------2---------------------------------------|
C#|--2--------------------------------2---------------------------------------|
G#|--0--------------------------------0---------------------------------------|
C#|---------------------------------------------------------------------------|

Outro: Guitar 1 (Acoustic) PLAY 1 TIME
D#|---------------------------------------------------------------------------|
A#|---------------------------------------------------------------------------|
F#|--------2-----------------2-----------------2-------0-------0--------------|
C#|----0-----0---0-------0-----0---0-------0-----0---0---0---0---0---0--------|
G#|---------------------------------------------------------------------------|
C#|--0---0-----0---0---3---3-----3---3---2---2-----2-------2-------2---2------|

Outro: Guitar 1 (Acoustic) PLAY 1 TIME
D#|---------------------------------------------------------------------------|
A#|---------------------------------------------------------------------------|
F#|--------2-----------------2-----------------2-----0------------------------|
C#|----0-----0---0-------0-----0---0-------0-----0---0------------------------|
G#|---------------------------------------------------------------------------|
C#|--0---0-----0---0---3---3-----3---3---2---2-----2--------------------------|

Finished
Related for I Cant Stop tab