Song name
# A B C D E F G H I J K L M N O P Q R S T U V W X Y Z

Dust To Dust - This Way tab

                        verse
e(-------------------)(-------------------)
b(----8---8--4-4-4-4-)(-------------------)
g(---8-8-8-8--3---3--)(-------------------)
d(--5---5---3---3----)(--5555555566666666-)
a(-------------------)(--5555555566666666-)
D(-------------------)(--5555555566666666-)
                       pm................

chorus
e(------------------------------------------------------------)
b(------------------------------------------------------------)
g(------------------------------------------------------------)
d(--666666666666553333333333331100000000000030000000066665555-)
a(--666666666666553333333333331100000000000030000000066665555-)
D(--666666666666553333333333331100000000000030000000066665555-)
  pm.........................................................

solo
e(----------------------9-11-11-9-11---------------------)
b(--11--11-13-11-11-10-9------------11--11-13-11-11-10-9-)
g(----10------------------------------10-----------------)
d(-------------------------------------------------------)
a(-------------------------------------------------------)
D(-------------------------------------------------------)

solo continued                          last chord
e(--9-11-13-13-11-9-12b13-------------)(----)
b(---------9--------------------------)(----)
g(------------------------------------)(--5-)
d(-----------------------/7-7-6-4-2-5-)(--5-)
a(------------------------------------)(--3-)
D(------------------------------------)(----)
Tap to rate this tab
# A B C D E F G H I J K L M N O P Q R S T U V W X Y Z