Song name
# A B C D E F G H I J K L M N O P Q R S T U V W X Y Z

Dust To Dust - Rot tab

intro/chorus
e(-----------------------------------------)
b(-----------------------------------------)
g(-----------------------------------------)
d(--2-2-4p2-2-2--0-3-3-5p3--1-7-7-5h7-7775-)
a(--2-2-4p2-2-2--0-3-3-5p3--1-7-7-5h7-7775-)
D(--2-2-4p2-2-2--0-3-3-5p3--1-7-7-5h7-7775-)
               pm.
verse                                    pre-chorus
e(----------------------------------)   (----------)
b(----------------------------------)   (----------)
g(----------------------------------)   (----------)
d(--3-7/6/5/7-3-7/6/5/7-1-7/6/5/7-3-)   (--5-3-1-3-)
a(--3---------3---------1---------3-)   (--5-3-1-3-)
D(--3---------3---------1---------3-)   (--5-3-1-3-)

solo
e(--15/13-13-10/12/10-10----------------------------------------------)
b(-----------------------9-9h13-9h12-9h11-9h10------------------------)
g(---------------------------------------------7h11-7h10-79-7h8-7-7/5-)
d(--------------------------------------------------------------------)
a(--------------------------------------------------------------------)
D(--------------------------------------------------------------------)

solo continued
e(--17-17-17/13-------------------------------------------------------)
b(--------------------77/10-------------------------------------------)
g(-----------------575------9h10-9h10-8h9-8h9-7h8-7h8-6h7-6h7-5h6-5h6-)
d(--------------575---------------------------------------------------)
a(--------------------------------------------------------------------)
D(--------------------------------------------------------------------)

solo continued                       x3          
e(---------------------------)(----------------)(----)
b(----------------------7/10-)(----------------)(----)
g(--4h5-4h5-4h5-3h4-3h4------)(----------------)(----)
d(---------------------------)(--0-0h2-222-2p0-)(--4-)
a(---------------------------)(--0-0h2-222-2p0-)(--4-)
D(---------------------------)(--0-0h2-222-2p0-)(--4-)
Tap to rate this tab
 
# A B C D E F G H I J K L M N O P Q R S T U V W X Y Z