Guitaretab - guitar tabs
Song name
# A B C D E F G H I J K L M N O P Q R S T U V W X Y Z

Dust To Dust - Pusher tab

intro
e(-------------------------------------------------------)
b(-------------------------------------------------------)
g(-------------------------------------------------------)
d(-------------------------------------------------------)
a(-------------------------------------------------------)
D(--203h53h5203/55h7203h53h5203h52h3203h53h5203h53h5-420-)

verse
e(-----------------------------------)(----------------)
b(-----------------------------------)(----------------)
g(-----------------------------------)(--6351321232332-)
d(--22222222333333332222222255555555-)(----------------)
a(--22222222333333332222222255555555-)(----------------)
D(--22222222333333332222222255555555-)(----------------)
  pm................................

chorus x4
e(---------------------)(-----------)
b(---------------------)(-----------)
g(----7---5---3---2222-)(-----------)
d(--5-7-3-5-1-3-0-2222-)(--00000000-)
a(--5---3---1---0------)(--00000000-)
D(--5---3---1---0------)(--00000000-)
[ Tab from: http://www.guitaretab.com/d/dust-to-dust/139487.html ]
solo
e(--2/8-----------------------------------------------------------)
b(--10-10-10-10-9-9-9-9-6-6-6-5-3-2-2-2-2-3-3-5-5-2-2-2-2-8-8-7-5-)
g(----------------------------------------------------------------)
d(----------------------------------------------------------------)
a(----------------------------------------------------------------)
D(----------------------------------------------------------------)

solo continued
e(-----------------------------------10----13-14-13-13p11h13p11/10-)
b(--10-10-10-10-9-9-9-9-6-6-6-5-3-10----10-------------------------)
g(-----------------------------------------------------------------)
d(-----------------------------------------------------------------)
a(-----------------------------------------------------------------)
D(-----------------------------------------------------------------)

solo continued
e(--11h13-15-17-15-13p11h13p11h13p11/10-17b18-)
b(--------------------------------------------)
g(--------------------------------------------)
d(--------------------------------------------)
a(--------------------------------------------)
D(--------------------------------------------)

Related for Pusher tab
Advertisement will be closed in 10 seconds