Song name
# A B C D E F G H I J K L M N O P Q R S T U V W X Y Z

Dust To Dust - Submission tab

intro
eb(--------------)
bb(--------------)
gb(--------------)
db(--------------)
ab(--------------)
Db(--0-20-00-200-)
   pm. .. .. ...

intro 2/second verse
eb(----------------------------------)(-----------)
bb(----------------------------------)(-----------)
gb(-------------------------------12-)(--12-11-10-)
db(--0-20-00-200-0000-0-20-00-200-12-)(--12-11-10-)
ab(--0-20-00-200-0000-0-20-00-200----)(-----------)
Db(--0-20-00-200-0000-0-20-00-200----)(-----------)

intro 3
eb(---------------)
bb(---------------)
gb(---------------)
db(----5565-65-86-)
ab(--3------------)
Db(---------------)

chorus
eb(------------------------------------)
bb(------------------------------------)
gb(------------------------------------)
db(--0-003-005-00-8-6-0-003-005-00-3-1-)
ab(--0-003-005-00-8-6-0-003-005-00-3-1-)
Db(--0-003-005-00-8-6-0-003-005-00-3-1-)

verse 1
eb(------------------------------------)
bb(------------------------------------)
gb(------------------------------------)
db(--0-003-005-00-8-6-0-003-005-00-3-1-)
ab(--0-003-005-00-8-6-0-003-005-00-3-1-)
Db(--0-003-005-00-8-6-0-003-005-00-3-1-)
   pm. ... ... .. . . . ... ... .. . .

solo
eb(------------------------------7-----7-9-10b--15b--15/9-)
bb(--------------------8-7-5-8-9---8-9--------------------)
gb(------4-----4-6-7-9------------------------------------)
db(--5-6---5-6--------------------------------------------)
ab(-------------------------------------------------------)
Db(-------------------------------------------------------)
Tap to rate this tab
 
# A B C D E F G H I J K L M N O P Q R S T U V W X Y Z