Song name
# A B C D E F G H I J K L M N O P Q R S T U V W X Y Z

Dust To Dust - Fix On tab

e(------------------)(----------------------------)(-----------)
b(----11--8--11--13-)(----------------------------)(-----------)
g(--8----9--8--9----)(----------------------------)(-----------)
d(------------------)(--333--11-11-8888--5-5-6666-)(--55-78-76-)
a(------------------)(--333--11-11-8888--5-5-6666-)(--55-78-76-)
D(------------------)(--333--11-11-8888--5-5-6666-)(--55-78-76-)

e(----------)(---------------------------)
b(----------)(---------------------------)
g(----------)(---------------------------)
d(-10-8-5-7-)(--000000333333222222666666-)
a(-10-8-5-7-)(--000000333333222222666666-)
D(--8-6-3-5-)(--000000333333222222666666-)
              pm........................
Tap to rate this tab
 
# A B C D E F G H I J K L M N O P Q R S T U V W X Y Z