Guitaretab - guitar tabs
Song name
# A B C D E F G H I J K L M N O P Q R S T U V W X Y Z

Dust To Dust - Supadupamachoman tab

intro harmonics  intro/chorus x4       verse x8
e(------------)(-------------------)(-------------------)
b(------------)(-------------------)(-------------------)
g(--9---------)(-------------------)(-------------------)
d(----8-srape-)(--7777555533334444-)(--7777555533334444-)
a(------------)(--7777555533334444-)(--7777555533334444-)
D(------------)(--7777555533334444-)(--7777555533334444-)
                                     pm................

pre-chorus x2       pre-solo x6             solo    (x8)
e(--------------)(--10-7-5-/4-)(--------)(--------------)
b(--------------)(------------)(--------)(--------------)
g(--------6-----)(------------)(----777-)(--------------)
d(--8/6-4-6-4-2-)(------------)(--2-777-)(--12b13h13b12-)
a(--8/6-4-x-4-2-)(------------)(--2-777-)(--------------)
D(--8/6-4-x-4-2-)(------------)(--2-----)(--------------)
[ Tab from: http://www.guitaretab.com/d/dust-to-dust/65615.html ]
solo continued           (x3)         (x4)
e(--18-16-15h16p15h16p15h16p15-13-)(-----------)(----------------------)
b(--------------------------------)(-----------)(----------------------)
g(--------------------------------)(-----------)(----------------------)
d(--------------------------------)(--10h11p10-)(--13h15p13h14p13h14-7-)
a(--------------------------------)(-----------)(----------------------)
D(--------------------------------)(-----------)(----------------------)

solo continued
e(-----------------------------------------------------------------------)
b(-----------------------------------------------------------------------)
g(-----------------------------------------------------------------------)
d(--9/11h12p11h12p11h12p11/7-9-10-12-------------------------------------)
a(-----------------------------------9h10p9/7h9p7h9-12p11/9h10/9-21/11/9-)
D(-----------------------------------------------------------------------)

solo continued                (x8)
e(-------------------------)(----------)
b(-------------------------)(----------)
g(--15b16-11b12p11/4-6-5-3-)(----------)
d(-------------------------)(--9h12p11-)
a(-------------------------)(----------)
D(-------------------------)(----------)

solo continued
e(-----------------------------------18-)
b(--------------------------------------)
g(--18b19-17-18p17-18p17h18p17h18p17----)
d(--------------------------------------)
a(--------------------------------------)
D(--------------------------------------)
Related for Supadupamachoman tab
Advertisement will be closed in 10 seconds